Ser Feio não é Defeito
Compositor: Craveiro e Cezar
7.978 visualizações
Afinação: Cebolão em Mi
Afinação: Ritmo: Moda

aperte Esc para fechar
Espaço para play/pause

Tom: E

|--------------------------------------
|--------------------------------------
|-1/3-3-3-3-3-1-1-0-0--0-1-1-1-0-0----- (1)
|-2/4-4-4-4-4-2-2-0-0--0-2-2-2-0-0-2-2-
|----------------------------------4-4-

|----------------------------------
|----------------------------------
|---------------------------------- (2)
|-2-2-2-2-0-0------2-2-2-2-0-0-----
|-4-4-4-4-2-2-0-0--4-4-4-4-2-2-0-0-

|----------------------------------
|-2-2-2-0---0-2-2--4-4-4-2-0---0-0-
|-1-1-1-0-1-0-1-1--3-3-3-1-0-1-0-0- (3)
|---------2------------------2-----
|----------------------------------

|----------------------------------------
|-4-4/5-5-4-2-0-4-4--2-0---2-2-0-----0-0-
|-3-3/5-5-3-1-0-3-3--1-0-1-1-1-0-1-0-0-0- (4)
|------------------------2-------2-0-----
|----------------------------------------

|-------------------
|-------------------
|-1-0---2-2-0---0-0- (5)
|-2-0-2-2-2-0-2-0-0-
|-----4-------4-----

(1) Lá no bairro a onde eu moro, tem uma mulher tagarela
(2) Não consegue ficar queta, tem a língua de tramela
(3) Ela me chamou de feio, de nariz de apagar vela
(4) Mais viver bem eu consigo pois eu carrego um gosto comigo
(5) Posso até ser feio mais não so dela

(1) Bate com a língua no dente, mas prela eu não do pelota
(2) Pressa mulher faladeira to servindo de chacota
(3) Feio também tem mulher cada um tem sua cota
(4) Por isso eu falo e sustento tudo que agente faz tem um pagamento
(5) E eu volto o troco conforme a nota

(1) Dela me chamar de feio pouco importo eu não ligo
(2) Com toda minha feiura consegui ter meu abrigo
(3) Quem desgava quer comprar é verdade o que eu lhe digo
(4) Ser feio não é defeito quem ama gosta de qualquer jeito
(5) É um ditado certo que vem dos antigos

(1) Deus me fez um homem feio pra não desmentir a raça
(2) Sou feliz vivendo assim feiura não me embaraça
(3) Nenhum bonito passou aonde esse feio passa
(4) Sou feio mais so enjoado vale muito mais um feio engraçado
(5) Do que mais de cem bonito sem graça

Colaboração: Igor Basso
o que achou da música?
comentários

Faltam caracteres

Obs: Seu comentario está sujeito à aprovação.

Alisson
3 anos atrás
Na ultima frase da música, a palavra "sem" foi escrito errada, acredito que a frase correta seria:
" Vale muito mais um feio engraçado do que mais de cem bonito sem graça."

Faltam caracteres

Ajude o CifrasdeViola a permanecer no ar:
Mostrar Acordes