Mineiro do Pé Quente
882 visualizações
Afinação: Cebolão em Mi
Afinação: Ritmo: Moda
Corrigir

aperte Esc para fechar
Espaço para play/pause

Tom: E

E |-----------------------------------------------------
B |-7h9-99-77------777----------------------------------
G#|-7h8-88-77-88-7-777-88-77-7h8-88-77-55-3-222-22-0-2~-    (1)
E |-----------99-7-----99-77-7h9-99-77-66-4-222-22-0-2~-
B |-----------------------------------------------------

E |--------------------------------------------------
B |--------------------------------------------------
G#|-0h2-22-22-0-0h2-2-222-22-2-0--------------0-2-2~-  (2)
E |-0h2-22-22-0-0h2-2-222-22-2-0-2------------0-2-2~-
B |------------------------------4-0--000-2-4--------

E |----------------------------------
B |---2/4-2--------------------------
G#|-2-2/3-2-3-2-2------------------B-  (3)
E |-2-------4-2-2-2----2-------------
B |---------------4-0--4-2-0-000-00--

(1)Mato grosso é um gigante onde eu piso devagar eu comparo esse estado um grande jequitibá
(2)Que faz uma sombra amiga esperando quem chegar
(3)Este estado hospitaleiro vou falar de um mineiro Residente em cuiabá

(1)No dia seis de janeiro há muitos anos atrás nasceu na terra do milho no chão de Minas Gerais
(2)Nasceu no dia de reis assim dizia seus pais
(3)Acredito no destino vai ter sorte esse menino Deus pra nós é bom demais

(1)O menino foi crescendo com a fibra de mineiro ele pensava em silêncio seu talento era ligeiro
(2)Honestidade e trabalho traz vitória e dinheiro
(3)Pra ele não tinha erro começou com três bezerros Mais tarde foi boiadeiro

(1)Na enxada e na foice e no machado pegou foi carreiro foi tropeiro com caminhão trabalho
(2)No grande jogo da vida não perdendo só ganhou
(3)Sua estrela só brilhava Deus sempre o acompanhava por onde ele passou

(1)Casou com dezoito anos entregou seu coração quem faz um bom casamento tem um tesouro na mão
(2)Com o seu consentimento vou dar minha opinião
(3)Sua esposa companheira no seu lar é a roseira Cada filho é um botão

(1)O mineiro está lá em cima lutando honestamente dono de uma grande empresa dá emprego a muita gente
(2)Sendo ele o grande esteio diretor e presidente
(3)Falo a verdade e não minto Senhor Augusto Alves Pinto É mineiro do pé quente

E |----------------------------------------
B |-------2/4~-444~-4~-------4~------------
G#|-0-1-3-1/3~-333~-3~-0-1-3-3~-3-3-1-0--E-
E |-0-2-4--------------0-2-4----4-4-2-0----
B |----------------------------------------
Sua vida é um livro aberto que nem o tempo consome

E |---------------------------------------
B |-------7-----7h9-9~-7-7h9-7---------E--
G#|-5-7-8-7-8-7-7h9-8~-7-7h8-7-8-7-5-3~---
E |-5-7-9---9-7----------------9-7-5-4~---
B |---------------------------------------
Mostrou pra filho e parente que vencer honestamente

E |------------------------
B |--E-------4~-2----------
G#|----0-1-3-3~-1--3-1~-0--
E |----0-2-4-------4-2~-0--
B |------------------------
Não é impossível pro homem..

mande seu vídeo tocando #aprendinocifrasdeviola

Grave um vídeo tocando "Mineiro do Pé Quente", poste no Youtube e envie o link pra gente! Você aparecerá aqui mostrando seu talento.

Envie seu vídeo
o que achou da música?
Ver Resultados
Total de 1 votos.
Muito Fácil: 0 votos. (0%)
0%
Fácil: 0 votos. (0%)
0%
Médio: 0 votos. (0%)
0%
Difícil: 1 votos. (100%)
100%
Muito Difícil: 0 votos. (0%)
0%
comentários

Faltam caracteres

Obs: Seu comentario está sujeito à aprovação.

Faltam caracteres

Ajude o CifrasdeViola a permanecer no ar:
Mostrar Acordes