De Igual pra Igual
2.603 visualizações
Afinação: Cebolão em Mi
Afinação: Ritmo: Caterete
Corrigir

aperte Esc para fechar
Espaço para play/pause

Tom: E


E |12-9----------9-10/12|11-7-------7-9/11|9-5-------5-7/9-7--|
B |-----10----10--------|-----9---9-------|----7---7---------9|
G#|--------10-----------|-------8---------|------7------------|
E |---------------------|-----------------|-------------------|
B |---------------------|-----------------|-------------------|


E |12-12-12-9----------9-10/12/14|11-11-11-7-------7-9/11/12|
B |--------------10----10--------|-----------9---9----------|
G#|-----------------10-----------|-------------8------------|
E |------------------------------|--------------------------|
B |------------------------------|--------------------------|


E |9-9-9-5-------5-7/9-7|-------------9-7|
B |--------7---7--------|9-9-7-------7---|
G#|----------7----------|------8-5-7-----|
E |---------------------|----------------|
B |---------------------|----------------|

          E
Voce mentiu, quando jurava para mim fidelidade
Fui apenas um escravo da maldade
                 B7
Você quis, você lutou e conseguiu
         F#m       B7                    F#m
Você feriu, sentimentos que a ti eu dediquei
           B7                  F#m
Quantas vezes o seu pranto enxuguei
        B7              E           B7
Por pensar que era por mim que chorava
         E
Você fingiu, você brincou com a minha sensibilidade

É o fim do nosso caso da verdade
E7                A
Só nos restam recordações
                                                E
Não toque em mim, hoje descobri que você não é nada
                                    B
Não podemos seguir juntos nesta estrada
     B7             E         E7
É o fim do amor sincero que senti
          A                                       E
Mas aprendi, fazer amor pra te ferir sem sentir nada
                                B
Enquanto eu amava você me enganava
                B7             E                 B
De igual pra igual quem sabe a gente pode ser feliz

          E        B                    E
Ser feliz, ser feliz, ser feliz, ser feliz

Colaboração: Caê Moura Penteado
mande seu vídeo tocando #aprendinocifrasdeviola

Grave um vídeo tocando "De Igual pra Igual", poste no Youtube e envie o link pra gente! Você aparecerá aqui mostrando seu talento.

Envie seu vídeo
o que achou da música?
Ver Resultados
Total de 6 votos.
Muito Fácil: 6 votos. (100%)
100%
Fácil: 0 votos. (0%)
0%
Médio: 0 votos. (0%)
0%
Difícil: 0 votos. (0%)
0%
Muito Difícil: 0 votos. (0%)
0%
comentários

Faltam caracteres

Obs: Seu comentario está sujeito à aprovação.

Alemao
2 meses atrás
Qual ritmo da de usa? será que cateretê fica bao.

Faltam caracteres

Ajude o CifrasdeViola a permanecer no ar:
Mostrar Acordes