Chuva na Vidraça
463 visualizações
Afinação: Cebolão em Ré
Afinação: Ritmo: Caterete
Corrigir

aperte Esc para fechar
Espaço para play/pause

Tom: D

D#|----------------------------------------------------------|
A#|------------------------5---7^8-8-8--8-7-7^8-7------------|
G |----5^6-6-6-5^6^5-5---5-----------------------------------|
D#|--------------------5-------------------------------------|
A#|----------------------------------------------------------|

D#|----------------------------------------------------------|
A#|------------------------5---7^8-8-8--7-5------------------|
G |----5^6-6-6-5^6^5-5---5------------------6----------------|
D#|--------------------5------------------------3-2^3^2-0----|
A#|-------------------------------------------------------3--|

                  D                    Em
Eu ainda estou aqui, a esperar você voltar.
                         A                       D 
E do jeito que você deixou, se encontra o nosso lar.

D#|-------------|
A#|-------------|
G |-------------| riff 1
D#|--2-0--------|
A#|------3-2----|

                     D            D7         G
As lembranças vem e vão, feito chuva na vidraça.
                                 D           A            D
Só o pranto que me molha o coração, é tormenta que não passa.
                 A                      G
A casa está tão só, não quero mais ninguém.
           A  G        A               D
Não sei amar em seu lugar um outro alguém.
                   A                 G
Você me trouxe o sol e me roubou o céu.
           A   G       A                 D
Me fez sonhar depois de amar me disse adeus.

Colaboração: Caê Moura Penteado
mande seu vídeo tocando #aprendinocifrasdeviola

Grave um vídeo tocando "Chuva na Vidraça", poste no Youtube e envie o link pra gente! Você aparecerá aqui mostrando seu talento.

Envie seu vídeo
o que achou da música?
comentários

Faltam caracteres

Obs: Seu comentario está sujeito à aprovação.

Faltam caracteres

Ajude o CifrasdeViola a permanecer no ar:
Mostrar Acordes