Catireiro Safado
1.862 visualizações
Afinação: Cebolão em Mi
Afinação: Ritmo: Pagode
Corrigir

aperte Esc para fechar
Espaço para play/pause

Tom: E

E |-4-4-4-7-7-7/09---5^7^5---7-7^9^7-------|
B |-5-5-5-9-9-9/10-7-------9---------------|
G#|----------------------------------------|
E |----------------------------------------|
B |----------------------------------------|

E |-------12----11---9-----7----5-----4----2--5|
B |-------------------------------------------5|
G#|10/12-----10----8----7-----5----3-----1----5|
E |-------------------------------------------5|
B |-------------------------------------------5|

E                                 B
Menina não fique me olhando de lado
                E                     B7 E B7
Eu sou comprometido Eu sou homem casado
E                                    B
Menina bonita dos ‘’olho’’ ingatinhado
                                      E
das “perna” bem grossa e sorriso safado

E |-------------2-|
B |-------------2-|
G#|-------------2-|
E |-2-3-4-5-6---2-|
B |-3-4-5-6-7---2-|

F#                                     B
Se a mulher descobre “nois tamo inrolado”
            A
É chute no balde
              E
É prato quebrado
            B                 E  B7 E B7
E ai no chicote nois vamo dançar

Solo

E |----------------------------------|-------------------------------|
B |----------------------------------|-------------------------------|
G#|-----8----8-7^8^7---7-10----10-8-|----8----8-7^8^7---7-10---10-8-|
E |-2/7----7---------7------7--------|--7----7---------7------7------|
B |----------------------------------|-------------------------------|

E |-----------------------------------------------|
B |-----------------------------------------------|
G#|------8-7-----------------------------1-0-----|
E |---7-----9-7--7-9-7-5-4-4-4/7--7-2--2-----2-0--|
B |-----------------------------------------------|

E                               B
Eu fui com os amigos numa pescaria
                                 E      B7 E B7
Deixamo as mulher e levamo as gatinhas
E                                 B
Domingo que vem as mulher vai ficar
                                  E   
E dinovo as gatinhas nois vamo leva


E |-------------2-|
B |-------------2-|
G#|-------------2-|
E |-2-3-4-5-6---2-|
B |-3-4-5-6-7---2-|

F#                                    B
Se a mulher descobre “nois tamo inrolado”
             A
É chute no balde
             E
É prato quebrado
             B                E  B7 E B7
E ai no chicote nois vamo dançar


E |----------------------------------|-------------------------------|
B |----------------------------------|-------------------------------|
G#|-----8----8-7^8^7---7-10----10-8--|----8----8-7^8^7---7-10---10-8-|
E |-2/7----7---------7------7--------|--7----7---------7------7------|
B |----------------------------------|-------------------------------|

E |------------------------------------------------------|
B |------------------------------------------------------|
G#|------8-7----------------------------1-0--------------|
E |---7-----9-7--7-9-7-5-4--4/7--7-2--2-----2-0----------|
B |------------------------------------------------------|

mande seu vídeo tocando #aprendinocifrasdeviola

Grave um vídeo tocando "Catireiro Safado", poste no Youtube e envie o link pra gente! Você aparecerá aqui mostrando seu talento.

Envie seu vídeo
o que achou da música?
Ver Resultados
Total de 1 votos.
Muito Fácil: 0 votos. (0%)
0%
Fácil: 0 votos. (0%)
0%
Médio: 0 votos. (0%)
0%
Difícil: 1 votos. (100%)
100%
Muito Difícil: 0 votos. (0%)
0%
comentários

Faltam caracteres

Obs: Seu comentario está sujeito à aprovação.

Faltam caracteres

Ajude o CifrasdeViola a permanecer no ar:
Mostrar Acordes