Caçador de corações
1.328 visualizações
Afinação: Cebolão em Ré
Afinação: Ritmo: Balada
Corrigir

aperte Esc para fechar
Espaço para play/pause

Tom: D

D |------------------------------------------------------------- 
A |------------------------------------------------------------- 
F#|------------------------------------------------10-12-13-12-- 
D |-----------8------------9------------11--8-9-11--------------
A |-9-9-9-8-9----9-9-9-8-9----9-9-9-8-9-------------------------

D |----------------------------------------------------------------------------- 
A |----------------------------------------------------------------------------- 
F#|-12-12-12-13-12-10---10-10-10-12-10-8--5-5-8-8-7---8-7-8-7--5-7-8--8^10^8-7--
D |----------------------------------------------------------------------------- 
A |-----------------------------------------------------------------------------

    D               F#                Bm
As vezes me pego sozinho pensando em você
      G                A7                D  A7
Me bate a saudade no peito querendo te ver
      D                 F#                 Bm
Eu saio entre a multidão de uma rua qualquer
       G                    A7                D
Querendo encontrar o seu rosto em outra mulher

F#
Mas nada que eu vejo é igual a você
Bm
Não sinto nas outras o mesmo prazer
E                                         A7
Tá sempre faltando uma coisa pra me completar
F#
Por isso é que eu fico pensando em nós dois
Bm
Do jeito que era durante e depois
E                                A7
O cheiro gostoso do amor solto no ar

 D7    G        A7            F#m
Cadê você, onde foi que se escondeu
        Bm            Em
Sem você eu não sou eu
           A7       D
Tudo aqui é solidão
 D7    G           A7         F#m
Cadê você, que não vi por onde andei
        Bm         Em
Sem você eu me tornei
      A7           D
Caçador de corações

Colaboração: Caê Moura Penteado
mande seu vídeo tocando #aprendinocifrasdeviola

Grave um vídeo tocando "Caçador de corações", poste no Youtube e envie o link pra gente! Você aparecerá aqui mostrando seu talento.

Envie seu vídeo
o que achou da música?
comentários

Faltam caracteres

Obs: Seu comentario está sujeito à aprovação.

Faltam caracteres

Ajude o CifrasdeViola a permanecer no ar:
Mostrar Acordes