Boi Veludo
581 visualizações
Afinação: Cebolão em Mi
Afinação: Ritmo: Moda
Corrigir

aperte Esc para fechar
Espaço para play/pause

Tom: A

|------------------------------------------------------------
|------------------------------------------------------------
|-0-0-5~-55-6-89~-6-5-0~-3-555~-5-3-0~-00-1-000--------------
|-0-0-5~-55-7-99~-7-5-0~-4-555~-5-4-0~-00-2-000-2------22----
|-----------------------------------------------3-2~-2-33-2~-

|-------------------------------------------------------
|-------------------------------------------------------
|------------------------A-----0~-00-1-00----0~-00-1-0~-
|-444~-22-------22-------------0~-00-2-00----0~-00-2-0~-
|-555~-33-22-0~-33-22-00----00------------00------------

|-----------------------------------------------------------
|-----------------------------------------------------------
|----1~-11-3-11~----1~-11-3-1~--00-5~-55-6-55-00-5~-55-6-5~-
|----2~-22-4-22~----2~-22-4-2~--00-5~-55-7-55-00-5~-55-7-5~-
|-22-------------22-----------------------------------------

|--------------------------------------------------
|-----------5h7~-7-5-------------------------------
|-555-5-6-8-5h6~-6-5-6-5-3-1-00~--1-0----------A---
|-555-5-7-9----------7-5-4-2-00~--2-0-----2--------
|-------------------------------------0-2-3-2~-----

Num jornal que sempre leio procurando distração
Eu encontrei bem no meio uma grande atração
Que ia haver um grande torneio lá na minha região
Eu que sempre tive anseio num duelo de ação
Fui assistir um rodeio por nome de furacão
Eu avistei bem no meio um boi da cor de carvão
O seu nome é veludo esse boi esta com tudo
Não deixa nada pro peão.

Peão que de longe veio com fama e tradição
Foi dizendo sem receio já montei até no cão
Nunca precisei de freio pra montar em bicho pagão
Não vou precisar de reio pra quebrar o boi campeão
Hoje vou dar um passeio no lombo do veludão
O brinquedo ficou feio bateu com a cara no chão
O pobre peão tremendo de medo saiu correndo
E trocou de profissão.

Peão que não fizer feio vai ganhar um dinheirão
Esta crescendo o rateio dinheiro tem de montão
O lombo do boi é cheio mas é liso igual sabão
Pra quebrar o seu galeio duvido que tenha peão
Nesta viola que ponteio vai aqui minha opinião
Boi veludo é um esteio garantia do patrão
O boi veludo é um craque o amigo João Gargalak
Tem um tesouro na mão

mande seu vídeo tocando #aprendinocifrasdeviola

Grave um vídeo tocando "Boi Veludo", poste no Youtube e envie o link pra gente! Você aparecerá aqui mostrando seu talento.

Envie seu vídeo
o que achou da música?
Ver Resultados
Total de 1 votos.
Muito Fácil: 1 votos. (100%)
100%
Fácil: 0 votos. (0%)
0%
Médio: 0 votos. (0%)
0%
Difícil: 0 votos. (0%)
0%
Muito Difícil: 0 votos. (0%)
0%
comentários

Faltam caracteres

Obs: Seu comentario está sujeito à aprovação.

Faltam caracteres

Ajude o CifrasdeViola a permanecer no ar:
Mostrar Acordes