Berrante Assassino
5.031 visualizações
Afinação: Cebolão em Ré
Afinação: Ritmo: Moda

aperte Esc para fechar
Espaço para play/pause

Tom: D

D#|--------------------------------7-----|
A#|----7-7--------7-7-9-9-7---7----7-----|
G |--7-7-7----8-8-7-7-8-8-7-8-7-7--7-----|(1)
D#|--7--------9-9-----------9---7--7-----|
A#|--------------------------------7-----|
-
D#|----------------------------------7---|
A#|------7-7-------------------------7---|
G |--7-7-7-7-7-7-8-7--5-5-8-8-5-5-7--7---|(2)
D#|--7-7-----7-7-9-7--6-6-9-9-6-6-7--7---|
A#|----------------------------------7---|
-
D#|--------------------------------|
A#|--------------------------------|
G |---7-7--7-5-5-5-5-3-3-3-3-2-2---|(3)
D#|---7-7--7-6-6-6-6-4-4-4-4-2-2---|
A#|--------------------------------|
-
D#|---------------------------------------7-7-7---------7-7-7-|
A#|---------------------------------------7-7-7---------7-7-7-|
G |----2-2-0-0-0-0-------3-3-2--0---------7-7-7-8-7^8^7-7-7-7-|(4)
D#|----2-2-0-0-0-0-2-2---4-4-2--0-2-2-0---7-7-7-9-7^9^7-7-7-7-|
A#|----------------4-4------------4-4-2-0-7-7-7---------7-7-7-|

(1)Na minha sala de pintura amarela
(2)Representando a florada do ipê do meu sertão
(3)Conservo ainda um berrante volteado,
(4)É lembrança do passado do meu tempo de peão, ai…


(1)Desde pequeno só viajei com boiada
(2)Passei meses na estrada de alegria e desengano
(3)E deste caso bem me lembro como foi
(4)Foi a façanha de um boi que chamava Soberano, ai….

(1)Faz muito tempo, mas o mês ainda lembro,
(2)Foi bem no fim de setembro quando a boiada estourou
(3)Lá em Barretos meio dia escureceu
(4)O Soberano ele venceu um garotinho ele salvou, ai…

(1)O seu paizinho comprou ele da boiada
(2)Levou pra sua invernada que de velhinho morreu
(3)O filho moço correu o Brasil inteiro
(4)Procurando o boiadeiro e o chifre do boi lhe deu, ai….

(1)Eu deste chifre mandei fazer um berrante
(2)Para ser meu ajudante nos transporte de boiada;
(3)O mesmo chifre que salvou este menino
(4)É o berrante assassino, desta saudade malvada, ai…

 

 

Colaboração: Caê Moura Penteado
o que achou da música?
comentários

Faltam caracteres

Obs: Seu comentario está sujeito à aprovação.

Faltam caracteres

Ajude o CifrasdeViola a permanecer no ar:
Mostrar Acordes