Barco de papel
1.564 visualizações
Afinação: Cebolão em Mi
Afinação: Ritmo: Toada
Corrigir

aperte Esc para fechar
Espaço para play/pause

Tom: F

E |----------------------------------------------------------------------------------
B |------------------------------------------------------10-10-10-10-10-10-10/12-----
G#|-5-5-5-5-5-5-5-5/8-8-7-6-6---6-6-6-6-6-6-6/12-10-8-8--10-10-10-10-10-10-10/12-----
E |-5-5-5-5-5-5-5-5/9-9-8-7-7---7-7-7-7-7-7-7/12-10-9-9------------------------------
B |----------------------------------------------------------------------------------

E |----------------------------------------5-----------------------------------------
B |-12-12-12-9-12-12-10-8-8-7-7------------5-----------------------------------------
G#|-12-12-12-8-12-12-10-7-7-6-6--8-8-6-6---5-----------------------------------------
E |------------------------------9-9-7-7---5-----------------------------------------
B |----------------------------------------5-----------------------------------------

 

             F                      C7
Meu grande amor, somos dois barcos tristes
                                             F
E navegamos sempre em ondas fortes
                         C7
Porque seguimos rumos diferentes
            Bb                  F
Um vai pro sul, o outro vai por norte
                                           C7
Pra onde vamos não existe porto
                             F
No mar da vida somos clandestinos
                            C7
Dois condenados a morrer de amor
                        F
Na tempestade do fatal destino

Solo 1
E |----------------------------------------------------------------5--
B |-10-10-10-10-10-10-10/12-12-12-12-9-12-12-10-8-8-7-7------------5--
G#|-10-10-10-10-10-10-10/12-12-12-12-8-12-12-10-7-7-6-6--8-8-6-6---5--
E |------------------------------------------------------9-9-7-7---5--
B |----------------------------------------------------------------5--

                         C7
Estou perdido e você também
                             F
Estamos dois a chorar de saudade
                         C7
Não adianta navegar pra longe
             Bb            F
Se está tão perto a felicidade
                          C7
Estamos presos pelo compromisso
                                 F
Que a própria honra obriga a cumprir
                             C7
Mas, se os nossos corações desejam
                               F
Os nossos lábios não podem impedir

Solo 1
E |----------------------------------------------------------------5--
B |-10-10-10-10-10-10-10/12-12-12-12-9-12-12-10-8-8-7-7------------5--
G#|-10-10-10-10-10-10-10/12-12-12-12-8-12-12-10-7-7-6-6--8-8-6-6---5--
E |------------------------------------------------------9-9-7-7---5--
B |----------------------------------------------------------------5--

                             C7
Nas minhas noites de cruel revolta
                                  F
Sinto por dentro um coração que chora
                         C7
Mas o relógio do tempo marcou
              Bb             F
O nosso encontro tão fora de hora
                           C7
Estou perdido pelo mar da vida
                       F
E enfrentando a onda cruel
                          C7
Jamais iremos alcançar o porto
                             F
Porque o nosso barco é de papel

Solo 2
E |-------------------------------
B |-5/12-12-10--8-8-7-7-----------
G#|-5/12-12-10--7-7-6-6--8-8-6-6--
E |----------------------9-9-7-7--
B |-------------------------------

Colaboração: Caê Moura Penteado
mande seu vídeo tocando #aprendinocifrasdeviola

Grave um vídeo tocando "Barco de papel", poste no Youtube e envie o link pra gente! Você aparecerá aqui mostrando seu talento.

Envie seu vídeo
o que achou da música?
Ver Resultados
Total de 3 votos.
Muito Fácil: 2 votos. (67%)
67%
Fácil: 1 votos. (33%)
33%
Médio: 0 votos. (0%)
0%
Difícil: 0 votos. (0%)
0%
Muito Difícil: 0 votos. (0%)
0%
comentários

Faltam caracteres

Obs: Seu comentario está sujeito à aprovação.

adir loures
2 meses atrás
Desculpe não entendi a introdução ta em lá e os acorde em fá tá errado , assim vcs confudem a cabeça d quem tá começando

Faltam caracteres

Ajude o CifrasdeViola a permanecer no ar:
Mostrar Acordes