Avenida Boiadeira
910 visualizações
Afinação: Cebolão em Mi
Afinação: Ritmo: Caterete
Corrigir

aperte Esc para fechar
Espaço para play/pause

Tom: A

Intro: (Solo)  E A E D A E

E |-/5--5--5--5----4--4---|--/10--10--10--10----9---|--------------------------------------------------|
B |-/7--7--7--7----5--5---|-------------------------|--14--14--10--12--12--12--9--10--10--10-----------|
G#|-----------------------|--/10--10--10--10----8---|--13--13--10--12--12--12--8--10--10--10---5/-8----|
E |-----------------------|-------------------------|------------------------------------------5/-9----|
B |-----------------------|-------------------------|--------------------------------------------------|

E |-/5--5--5--5----4--4---|--/10--10--10--10----9---|---9--7--5--7--4--5--2--4--2--0--0---5------------|
B |-/7--7--7--7----5--5---|-------------------------|--10--9--7--9--5--7--3--5--3--2--0---5------------|
G#|-----------------------|--/10--10--10--10----8---|-------------------------------------5------------|
E |-----------------------|-------------------------|-------------------------------------5------------|
B |-----------------------|-------------------------|-------------------------------------5------------|


   A                           E7
O poeta e eterno, a nossa homenagem
                         A
Ao inesquecivel jose fortuna

A
Como em quase todas as cidades
                            E7
Há uma avenida onde passa o gado

Em minha terra também existia
A
Uma avenida sobre o meu passado

E foram tantas tardes de sol claro
          A7                D
Tantas e tantas nuvens de poeira
         E7                    A
Que esta avenida hoje traz meu nome
          E7               A
Depois de ser estrada boiadeira

Refrão:
          E7           A
velha avenida onde deixei
             E7          D      A
rastro de infância que virou saudade
         E7              A
e hoje existe em cada esquina
           E7                 A
meu nome escrito para a eternidade

 

A
Foi a boiada longa do meu tempo
                             E7
A passo lento em silêncio andando

Meu coração velho boiadeiro
          A
Sabe que chega, mas não sabe quando

Talvez quando as paineiras tenham
          A7               D
Aberto as suas flores perfumadas
           E7             A
Igual a um dia a paineira velha
           E7                   A
Sua sombra serviu pra descansar boiadas

(Refrão)

A
Se a dor se escreve em lápide de pedra
                             E7
Hoje encontrei em placas reluzentes

Meu nome escrito a brilhar porque
         A
Esta homenagem recebi contente

Foram quarenta anos de trabalho
         A7                 D
Que felizmente estão reconhecidos
               E7                  A
Quando os meus versos para o céu voarem
         E7                    A
Em minha terra alguém os tenha lido

(Refrão 2x)

mande seu vídeo tocando #aprendinocifrasdeviola

Grave um vídeo tocando "Avenida Boiadeira", poste no Youtube e envie o link pra gente! Você aparecerá aqui mostrando seu talento.

Envie seu vídeo
o que achou da música?
comentários

Faltam caracteres

Obs: Seu comentario está sujeito à aprovação.

Faltam caracteres

Ajude o CifrasdeViola a permanecer no ar:
Mostrar Acordes