Ave Maria
2.315 visualizações
Afinação: Cebolão em Ré
Afinação: Ritmo: Instrumental
Corrigir

aperte Esc para fechar
Espaço para play/pause

Tom: D

 

D |-----------0--------------|-----0--------------0--4--|--0-----------4--7--4-------------0--5--0-----------|
A |--------0-----0-----------|--0-----0--------0--------|-----0-----3-----------3-------2--------------------|
F#|-----0-----------0-----0--|-----------0--------------|-------------------------------------------5-----4--|
D |--0-----------------0-----|--------------0-----------|--------0-------------------0-----------------0-----|
A |--------------------------|--------------------------|----------------------------------------------------|

D |--0--5--0-----------0--4--|--0--------------0--------|--0--------0--------------|--0--------0--4--------4--|
A |-----------------0--------|-----0--------0-----0-----|--------0-----0-----------|-----4--2-----0-----0-----|
F#|-----------4--------------|-----------0-----------0--|-----0-----------0-----2--|-----------------0--------|
D |--------------0-----------|--------0-----------------|--0-----------------------|--------------------------|
A |--------------------------|--------------------------|--------------------2-----|--------------------------|

D |--0-----14------11--14--11------|-----------0--------------|-----0----------------9--14--|--16--14--12------11--9------11--|
A |-----0---0------------------10--|--------2-----2-----------|--2-----2---------10---------|----------12---------------------|
F#|------------13------------------|-----0-----------0-----0--|-----------0--10-------------|-------------------------10------|
D |--------------------------------|--------------------------|-----------------------------|----------14--14-----------------|
A |-----------------------------L--|--0-----------------0-----|--------------10-------------|----------12---------------------|

D |-----0----------------9--14--|--16--14--12------11--9------11--|--0--------0--------------|-----4--------4--------4--|--2--0-----------4---6---|
A |--2-----2---------10---------|----------12---------------------|--------0-----0-----------|--0--------0--4-------------------4-----2-----------|
F#|-----------0--10-------------|-------------------------10------|-----0-----------0-----0--|--------0-----4--0--4-----|-----------0-------------|
D |-----------------------------|----------14--14-----------------|--0-----------------0-----|--------------0-----------|--------0----------------|
A |--------------10-------------|----------12---------------------|--------------------------|--------------------------|-------------------------|

D |--4--------4--------3-----|-----3--------2--------2--|-----0--11----------------------|--------------------------|
A |-----------------2--------|--2--------4--1-----4-----|--------------------10----------|-----------5--------------|
F#|--------5-----2--------2--|--------2--------1--------|--1---------10--12------10------|--8--0--5-----5--------0--|
D |-----6--------------------|--------------------------|----------------------------11--|-----------------4--------|
A |--4-----------------4-----|--------------------------|--------10----------------------|--0-----------------2-----|

D |-----4--------2--------2--|-----------1--4--7--4-----|--------------------------|--------2p-0h-------7-----------|
A |--2--------2--------0-----|-----4--2--------------6--|--7--------7--------------|--4--5p-------4--2--0-----0--4--|
F#|--------0-----------------|--------0-----------------|--------7-----7--------5--|--------------------------------|
D |-----------------2--------|--2-----------------------|-----7-----------7--------|--------------------------------|
A |--------------4-----------|--------------------------|--7-----------------7-----|-----------------------7--------|


D |--------------------------|--14------11--14--11--14--14------|--13--14--11--16---------4--0--|-----------------0--------|
A |--0-----0-----0--4--0-----|---0------------------------------|-------------------0-----------|--------------0-----0-----|
F#|--------------------------|------13----------------------13--|----------------------0--------|-----0-----0-----------0--|
D |-----2-----2-----------2--|----------------------------------|------------------14-----------|--------------------------|
A |--------------------------|--------------------------12------|-------------------------------|--0-----0-----------------|


D |--14------11--14--11--14--14------|---------------------------0--|-----------------0--------|--------------------4-----|
A |----------------------------------|------------------------2-----|--2-----------2-----2-----|--7--------7-----7--4-----|
F#|------13--------------------------|------13--12--10-----0--------|-----0-----0-----------0--|--------------------4-----|
D |------------------------------13--|--14--------------0-----------|--------------------------|--7-----7-----------4--4--|
A |---0----------------------12------|------------------------------|--------0-----------------|-----7--------7-----------|

D |--4--4h-5p-4-2--4--7--------5--|--2-----------2--5--------|--4--------2-----0--0-----|--0--3--2--0--2--------2--|
A |-------------------7--7--------|-----2-----2--------------|--------------------2--4--|--------------0-----0-----|
F#|-------------------5-----5-----|--------------------5-----|--------5-----1-----2-----|--------------------------|
D |-------------------------------|--------2-----------------|--5--5--------------------|-----------------2--------|
A |-------------------7-----------|-----------------------2--|--------------------2-----|--------------------------|

D |-----------------2--------|--0--------0--------------|--0--------0--4--------4--|--0------------11--14--11------|
A |--0-----0-----0-----0-----|--------0-----0-----------|-----4--2-----0-----0-----|-----0-----10--------------10--|
F#|--------------------------|-----0-----------0-----2--|-----------------0--------|-------------------------------|
D |-----2-----2-----------2--|--0-----------------------|--------------------------|-------------------------------|
A |--------------------------|--------------------2-----|--------------------------|--------0----------------------|


D |-----------0--------------|-----0--------------0--4--|--0-----------4--7--4-----|--------0--5--0-----------|
A |--------0-----0-----------|--0-----0--------0--------|-----0-----3-----------3--|-----2--------------------|
F#|-----0-----------0-----0--|-----------0--------------|--------------------------|-----------------5-----4--|
D |--0-----------------0-----|--------------0-----------|--------0-----------------|--0-----------------0-----|
A |--------------------------|--------------------------|--------------------------|--------------------------|

D |--0--5--0-----------0--4--|--0--------------0--------|--0--------0--------------|--0--------0--4--------4--|
A |-----------------0--------|-----0--------0-----0-----|--------0-----0-----------|-----4--2-----------0-----|
F#|-----------4--------------|-----------0-----------0--|-----0-----------0-----2--|-----------------0--------|
D |--------------0-----------|--------0-----------------|--0-----------------------|--------------------------|
A |--------------------------|--------------------------|--------------------2-----|--------------0-----------|

D |--0------------11--14--11------|--0----------------|
A |-----0-----10--------------10--|--0----------------|
F#|-------------------------------|--0----------------|
D |-------------------------------|--0----------------|
A |--------0----------------------|--0----------------|

Colaboração: Caê Moura Penteado
mande seu vídeo tocando #aprendinocifrasdeviola

Grave um vídeo tocando "Ave Maria", poste no Youtube e envie o link pra gente! Você aparecerá aqui mostrando seu talento.

Envie seu vídeo
o que achou da música?
Ver Resultados
Total de 3 votos.
Muito Fácil: 0 votos. (0%)
0%
Fácil: 0 votos. (0%)
0%
Médio: 0 votos. (0%)
0%
Difícil: 0 votos. (0%)
0%
Muito Difícil: 3 votos. (100%)
100%
comentários

Faltam caracteres

Obs: Seu comentario está sujeito à aprovação.

Tiago Mendes
2 meses atrás
Vídeo aula dessa bela música, por favor.

Faltam caracteres

Ajude o CifrasdeViola a permanecer no ar:
Mostrar Acordes