Aceita Que Dói Menos
4.018 visualizações
Afinação: Cebolão em Ré
Afinação: Ritmo: Caterete
Corrigir

aperte Esc para fechar
Espaço para play/pause

Tom: A

Introdução base: A7  D  E  A %  E %  A  D  A

D |-7-7-7-7--5-5--4-4--7-7--6-6--4--6--6-6--4-4--6--4--2--|
A |-9-9-9-9--7-7--5-5--9-9--7-7--5--7--7-7--5-5--7--5--4--|
F#|-------------------------------------------------------|
D |-------------------------------------------------------|
A |-------------------------------------------------------|

D |--------4----2----0----4----2----0---------------------|
A |--------------------------------------5----4----2--0---|
F#|-------------------------------------------------------| D A
D |-2-2-2----2----2----2----2----2----4----2----0---------|
A |-------------------------------------------------------|


 A
Tô aqui jogado fora
                        E
E ela não quer mais me ver
                  Bm
Vacilei pisei na bola
              E
E ela me deu fora
                  A D A
Tô perdido sem você


A
Quem me amava de verdade

                  E
Se cansou e bateu asas
                       Bm
Já tem alguém que te adora
                     E
Enquanto busquei lá fora
                      A    A7
O que eu já tinha em casa


                  D
De tanta saudade dela
Chorando eu liguei pra ela
                        A
Pra dizer que estou sofrendo
                   E
Insisti e ela atendeu
Sorrindo me respondeu
  D             A     A7
Aceita que dói menos

 

 A
Tenho tanta liberdade
                            E
Mas outro amor pra mim não serve
                Bm
É como diz o ditado
                    E
Quem está do nosso lado
                         A     A7
Só tem valor depois que perde

                  D
De tanta saudade dela
Chorando eu liguei pra ela
                        A
Pra dizer que estou sofrendo
                   E
Insisti e ela atendeu
Sorrindo me respondeu
  D             A     A7
Aceita que dói menos

  D             A
Aceita que dói menos

Colaboração: Rodrigo Padua
mande seu vídeo tocando #aprendinocifrasdeviola

Grave um vídeo tocando "Aceita Que Dói Menos", poste no Youtube e envie o link pra gente! Você aparecerá aqui mostrando seu talento.

Envie seu vídeo
o que achou da música?
Ver Resultados
Total de 1 votos.
Muito Fácil: 1 votos. (100%)
100%
Fácil: 0 votos. (0%)
0%
Médio: 0 votos. (0%)
0%
Difícil: 0 votos. (0%)
0%
Muito Difícil: 0 votos. (0%)
0%
comentários

Faltam caracteres

Obs: Seu comentario está sujeito à aprovação.

Marcelo Nóbrega
4 meses atrás
A segunda tablatura esta estranha vários G#
Cifras de Viola
4 meses atrás
Bom dia violeiro! Uai rapaz, foi verificado aqui e está ok, você está acessando via dispositivo móvel ? celular, tablet, algo assim, caso sim, pode ter alguma diferença sim, caso não, aqui está certim.

Faltam caracteres

Ajude o CifrasdeViola a permanecer no ar:
Mostrar Acordes