A volta que o mundo dá
1.438 visualizações
Afinação: Cebolão em Mi
Afinação: Ritmo: Moda
Corrigir

aperte Esc para fechar
Espaço para play/pause

Tom: E

E |-0-0-0-0-------0-0--------------2-2-2-------------2-2-----
B |-0-0-0-0-------0-0--------------2-2-2-------------2-2-----
G#|-0-0-0-0-------0-0--1h0--0-0-0--2-2-2--3--2h3--2--2-2----- 
E |-0-0-0-0--2----0-0--2h0--0-0-0--2-2-2--4--2h4--2--2-2-----
B |-0-0-0-0--4h0--0-0--0----0-0-0--2-2-2--2--2h2--2--2-2-----
-
E |----------------------------------------------------------
B |--------------------7-7---7-7-----------------------------
G#|-2-2-2-2-7-7--7-7-7-7-7-8-7-7-8-7-7----------------------- (1)
E |-2-2-2-2-7-7--7-7-7-----9-----9-7-7-----------------------
B |----------------------------------------------------------
-
E |----------------------------------------------------------
B |-------------------7-7---7-7------------------------------
G#|-2-2-2-2-7-7-7-7-7-7-7-8-7-7-8-7-7------------------------ (2)
E |-2-2-2-2-7-7-7-7-7-----9-----9-7-7------------------------
B |----------------------------------------------------------
-
E |-7----------------------------------------0-0-0-0-2-------
B |-7-7--------------------------------------0-0-0-0-2-------
G#|-7-7-8-7-3-3-3-1-0-0-0-3--3-1-3-3-0----0--0-0-0-0-2------- (3)
E |-7---9-7-4-4-4-2-0-0-0-4--4-2-4-4-0--2-0--0-0-0-0-2-------
B |-7-----------------------------------4----0-0-0-0-2-------
-
E |----------------------------------------7-7-7-------------
B |----------------------------------------7-7-7-------------
G#|-2-2-2-2-2------------2-----------------7-7-7-------------
E |-2-2-2-2-2-2-0-2-2-2--2-2-6-6-6-6-6-2-2-7-7-7------------- (4)
B |-----------4-2-0-0-0----4-7-7-7-7-7-4-4-7-7-7-------------
-
E |----------------------------------------------------------
B |----------------------------------------------------------
G#|-0-0---0-0-1-3-3-3-3-7-9-7-7-----7-7-7-7-7-7-------------- (5)
E |-0-0-2-0-0-2-4-4-4-4-7-8-7-7-7-5-7-7-7-7-7-7--------------
B |-----4-----------------------9-7--------------------------
-
E |-----------------0-0-0-0----------------------------------
B |-----------------0-0-0-0----------------------------------
G#|-3-3-5-3-3-0-0-0-0-0-0-0---------------------------------- (6)
E |-4-4-5-4-4-0-0-0-0-0-0-0----------------------------------
B |-----------------0-0-0-0----------------------------------

(1) No estado de São Paulo foi em Guaratinguetá
(2) Um casal de namorados jurou de não separar
(3) Mas o malvado dinheiro fez a jura se quebrar
(4) O pai falou para filha seu namoro vai parar
(5) Somos de família nobre o seu namorado é pobre
(6) Não vamos se misturar

(1) Rapaz que não tem dinheiro no meu lar não vai entrar
(2) Caboclinho do pesado suspirou pra não chorar
(3) Retrucou assim dizendo dinheiro eu posso ganhar
(4) Minha mão tá calejada meu defeito é trabalhar
(5) Se fosse como eu queria nosso pão de cada dia
(6) Eu não deixava faltar

 
(1) Um sujeito endinheirado um dia passou por lá
(2) Contando tanta vantagem fez o velho acreditar
(3) Meu pai tem muito dinheiro meu trabalho é estudar
(4) Levou a moça no tapa namorando sem casar
(5) O cara de posição não passava de um ladrão
(6) Que a polícia foi buscar

(1) Ladrão deixou uma filha o avô quem vai criar
(2) E a mãe ficou solteira não adianta reclamar
(3) A menina a todo instante para mãe vai perguntar
(4) Mãezinha cadê meu pai quero ver onde ele está
(5) Nesta hora a mãe se cala a verdade ela não fala
(6) Porque a coragem não dá

(1) O amor é coisa séria nunca vi ninguém comprar
(2) Muito pai sem coração tem filha pra negociar
(3) Procura quem tem dinheiro para filha namorar
(4) Desprezaram o caboclinho que deviam respeitar
(5) Caboclinho do pesado hoje tem seu lar honrado
(6) É a volta que o mundo dá

Colaboração: Caê Moura Penteado
mande seu vídeo tocando #aprendinocifrasdeviola

Grave um vídeo tocando "A volta que o mundo dá", poste no Youtube e envie o link pra gente! Você aparecerá aqui mostrando seu talento.

Envie seu vídeo
o que achou da música?
comentários

Faltam caracteres

Obs: Seu comentario está sujeito à aprovação.

Faltam caracteres

Ajude o CifrasdeViola a permanecer no ar:
Mostrar Acordes