A Derrota do Boi Palácio
604 visualizações
Afinação: Cebolão em Mi
Afinação: Ritmo: Moda
Corrigir

aperte Esc para fechar
Espaço para play/pause

Tom: E


E |-------------------------------|
B |--5-5-5-5-5-0-5-5-5-0-5-5-5-4--|
G#|--5-5-5-5-5-0-5-5-5-0-5-5-5-3--|
E |-------------------------------|
B |-------------------------------|

E |---------------------------------5-|
B |--7-7-7-7-7-5-7-7-7-5-7-7-7-5-5--5-|
G#|--6-6-6-6-6-5-6-6-6-5-9-9-9-5-5--5-|
E |---------------------------------5-|
B |---------------------------------5-|

E |--2/3-3-3-3-2/3-2-2-2-2-2-0-2---|
B |----2-2-2-2---2-----------------|
G#|--------------------------------|
E |--------------------------------|
B |--------------------------------|

E |--------------------------------|
B |--7-7-7-7-----7-----------------|
G#|--6-6-6-6-5-5-6-5-6-------------|
E |----------5-5---5-7-5-5-7-7-9-5-|
B |--------------------4-4-5-5-7-4-|

E |--------------------------------|
B |--------------------------------|
G#|--------------------------------|
E |--10-9-9-7-7-5-5-10-9-9-7-7-5-5-|
B |---9-7-7-5-5-4-4--9-7-7-5-5-4-5-|

E |-----------------5--------------|
B |--6-6-5-5-3-3----5--------------|
G#|--7-7-5-5-3-3-5--5--------------|
E |--------------4--5--------------|
B |-----------------5--------------|


No vale do Paraíba, seu Castorino chegou
Da cidade de São Carlos trazendo dois toureador,
Também trouxe o boi Palácio, um mestiço pulador
A procura de um peão que fosse bom montador.
Porque na zona do norte, 28 peão dos mais forte
O mestiço derrubou, ai.

Já no primeiro domingo, o Palácio foi montado
Pelo Sr. Nenê Lima um peão muito afamado,
Foi pela grande assistência muito dinheiro apostado
O povo estava ansioso na espera do resultado,
O boi pranchava no ar, só via os cascos relampear
Em quatro pulos foi jogado, ai.

Petito lá de Barretos, não é por engrandecer
Lá naquela redondeza é o melhor peão pra meu ver,
Quando soube da noticia também veio se inscrever
Apostou dez mil cruzeiros na certeza de vencer.
Mas o malvado mestiço sem ter grande sacrifício
Também fez ele descer, ai.

Apareceu Gumercindo, um mulato decidido
Falou pro seu Castorino se ele era concedido,
Pra montar naquele boi sem ele ter se inscrevido
Eu garanto que esta tarde vai ser muito divertido.
A fama durou até agora, mas hoje acaba na espora
Deste peão desconhecido, ai.

Ele montou e não caiu, naquele boi afamado
Gumercindo pro revanche, logo ele foi convidado,
No dia cinco de junho, no grande dia esperado.
Tornou montar e não caiu onde foi considerado
Que o marvado do mulato, tem que ser mesmo de fato
O melhor peão do estado, ai.

Naquela grande cidade, depois do boi ser montado
O nome de Gumercindo ta sendo muito falado,
Por esta grande vitória, por este peão alcançado
Arrecebeu vinte contos, honradamente ganhado
O boi Palácio voltou pra terra que se criou
Por ter sido derrotado, ai.

mande seu vídeo tocando #aprendinocifrasdeviola

Grave um vídeo tocando "A Derrota do Boi Palácio", poste no Youtube e envie o link pra gente! Você aparecerá aqui mostrando seu talento.

Envie seu vídeo
o que achou da música?
comentários

Faltam caracteres

Obs: Seu comentario está sujeito à aprovação.

Faltam caracteres

Ajude o CifrasdeViola a permanecer no ar:
Mostrar Acordes