Sublime Renúncia
688 visualizações
Afinação: Cebolão em Ré
Afinação: Ritmo: Guarânia
Corrigir

aperte Esc para fechar
Espaço para play/pause

Tom: D

D--|-4-4-4-4-4-4--0-2-0-2--4-2-4-2-2-2-2-2-2-2------------|-
A--|------------------------------palhetada---------------|-
F#-|------------------------------------------------------|-
D--|------------------------------------------------------|-
A--|------------------------------------------------------|-
-
D--|-4-4-4-4-4-4--0-2-0-2--4-2--5-4--5-4-2-0-2------------|-
A--|------------------------------------------------------|-
F#-|------------------------------------------------------|-
D--|------------------------------------------------------|-
A--|------------------------------------------------------|-
-
D--|-7-2-2-2-2-2-2-2-2-5^2-4^2-2-2-2-2-2-2-2-4-4-4-4-4-4-4|-
A--|------------------------------------------------------|-
F#-|------------------------------------------------------|-
D--|------------------------------------------------------|-
A--|------------------------------------------------------|-
-
D--|-7-7-7-7-7-7-7-7-2-2-2-2-2-2-4-4-4-4-4-4---7-5-4-2-4--|-
A--|------------------------------------------------------|-
F#-|------------------------------------------------------|-
D--|------------------------------------------------------|-
A--|------------------------------------------------------|-

INTRODUÇÃO: F# Bm F# Bm Em Bm F# Bm A Bm

            Bm             F#m       Em
Hoje meus dias são de tristeza e solidão
               A           G             D
Trago em minh'alma uma profunda conformação
        Bm             F#m     Em
Renunciei meu grande amor um dia
             A                G        D
Nos braços dela em que tão triste eu dizia
           F#                        Bm
Beija nos lábios ao meu amor com frenesi
                  Em             D      F# Bm
Não chores por favor,porque preciso partir
                          A
Este foi o meu último beijo
                   G
Satisfiz o meu desejo
                  F#  Bm
O pior foi te perder
                   A
Resiguinemos ó querida
                 G
Não lamentemos a vida
A         G          D
Nosso destino é sofrer

*FALADO*
F#             Bm                   F#
"Beijando o batom que toca seus lábios
                Bm           Em                      Bm
Sufoco serenamente a dor pungente que dilacera minh'alma
                  F#                     Bm
Com os olhos chorosos e o coração em pedaços
                 A                  Bm
Ainda encontro forças para suportar esta sublime renúncia"


      Bm            F#m   Em               D
A renúncia é tão triste,nada mais posso fazer
Em                  D      E7               A7
Nosso amor já não existe,teve que um dia morrer
G                            A              D
O anel que tu deixastes,em cima da penteadeira
Bm                     E7  A7         D F# Bm
Vai lembrar o nosso adeus,a vida inteira

Colaboração: Caê Moura Penteado
o que achou da música?
comentários

Faltam caracteres

Obs: Seu comentario está sujeito à aprovação.

Faltam caracteres

Ajude o CifrasdeViola a permanecer no ar:
Mostrar Acordes