Velho Poeta
1669 visualizações
Afinação: Cebolão em Mi
Afinação: Ritmo: Moda
Corrigir

aperte Esc para fechar
Espaço para play/pause

Tom: B

|------------------------2------------------------
|--7---------------------2--7-----------7---------
|--7--8-7-7-7-8-8-7--5---2--7-8--7-7-7--7--7-7-7-- (1)
|-----9-7-7-7-9-9-7--6---2----9--7-7-7-----7-7-7--
|------------------------2------------------------

|------------------------------------------
|--7---------------------------------------
|--7--8--7-7-7-7-0---0---2-2-3-3-3--2-2-2-- (2)
|-----9--7-7-7-7-0---0---2-2-4-4-4--2-2-2--
|------------------------------------------

|------------------------------------------------
|------------------------------------------------
|--5-5--5--5-5-5-3-3---5-2--2--3---3--2---------- (3)
|--6-6--6--6-6-6-4-4---6-2--2--4---4--2------2---
|----------------------------------------0-0-4---

|-------------------------------------------------------
|-------------------------------------------------------
|--2--2--3---3-3--2------------0--0---0----------------- (4)
|--2--2--4---4-4--2--0--0--0---0--0---0--2-2--2---------
|--------------------2--2--2-------------4-4--4--0-0--0-

|-------------------------2------------------------------7-
|-------------------------2------------------------------7-
|-------------------3--2--2-2-------------0-0------------7- (5)
|-------2-2-2-------4--2--2-2---2-----2---0-0-2-2--------7-
|--0--2-4-4-4--0--0-------2-----4--2--4-------4-4--2--0--7-

(1) Vou fazer um pedido a Deus pra de mim ele ter piedade
(2) refazendo voltar ao presente meu passado de felicidade
(3) a esperança da minha infancia e os prazeres da mocidade
(4) porque hoje meu corpo cansado não suporta o peso da idade
(5) sou a curva do rio que secou aonde encostou a ingrata saudade

(1) Passo os dias na minha cabana na soleira da porta sentado
(2) relembrando as proesas que fiz e o chão que por mim foi pisado
(3) meus cabelos já parecem pano e tem gente que acha engraçado
(4) falar de minha pele enrugada representa o mapa riscado
(5) cada risco que tenho no rosto retrata o desgosto que tenho passado.

(1) Se meu Deus não poder devolver o meu tempo feliz de outrora
(2) que levava bem longe de mim a tristeza que eu sinto agora
(3) e trazer novamente alegria para o meu pobre peito que chora
(4) eu confesso com toda franqueza que do mundo prefiro ir embora
(5) de joelho eu peço perdão e me dê sua mão ao chegar minha hora.

(1) Nesta grande batalha da vida reconheço que estou vencido
(2) na trincheira da desilusão solitário estou escondido
(3) aos amigos eu peço desculpa se por mim alguém foi ofendido
(4) os meus versos eu deixo gravado e a Deus faço mais um pedido
(5) proteja quem lê poesia seleta pra esse poeta não ser esquecido.

Colaboração: Sérgio Rubin
mande seu vídeo tocando #aprendinocifrasdeviola

Grave um vídeo tocando "Velho Poeta", poste no Youtube e envie o link pra gente! Você aparecerá aqui mostrando seu talento.

Envie seu vídeo
o que achou da música?
comentários

Faltam caracteres

Obs: Seu comentario está sujeito à aprovação.

Faltam caracteres

Ajude o CifrasdeViola a permanecer no ar:
Mostrar Acordes