Reencontro
Compositor: Zé Venâncio & Zé Mineiro
257 visualizações
Afinação: Cebolão em Mi
Afinação: Ritmo: Toada
Corrigir

aperte Esc para fechar
Espaço para play/pause

Tom: C

Introdução

|--------8----------7--8-----10--8--7--5-----3--------------------8-
|-----------------------------------------------------------------8-
G#|--7--8------5--6------8--9------8--6--4-----3--------------------8-
E |-------------------------------------------------5---3---5---5---8-
B |-------------------------------------------------------------------

E |--7---5---3----------------------------------3---------------------
B |---------------------------------------------------6------5---3---1
G#|--8---4---3------1-------------------2---3-------------------------
E |---------------------3---1---0------------------5------3----1---0--
B |---------------------------------3---------------------------------

E |-------------------------------------------------------------------
B |--3----4----5------------------------------------------------------
G#|-------------------------------------------------------------------
E |--1----2----3------------------------------------------------------
B |-------------------------------------------------------------------

 

Solo Final

E |-8--7---5---3------------------------3-----5----7------10-----8----
B |-8---------------6---5---3-----------------------------------------
G#|-8--6---4---3----------------2---3------4----6-----8------8--------
E |-8---------------5---3---1-----------------------------------------
B |-------------------------------------------------------------------

C      G7         C
Ontem voltei ao passado
      C               G7
Fui longe viajando na mente

Encontrei o meu primeiro amor
                           C 
Foi lindo o reencontro da gente


                 G7    C
Beijei os teus lábios macios
                     G7
Na curva pra lá da cancela
                      C
E ainda luz de pirilampos
                              G7
Enfeitei com “florzinhas” do campo
                      C
A trança dos cabelos dela

(Refrão)

G7                           C
Não faz mal que meus olhos marejem
      G7                  C
Ao falar desta viagem que fiz
    G7                    C
Se chorar, eu chorei de saudade
                            G7
Então deixe que eu chore à vontade
       G7     /  F   G7 /       C
Pois só tem saudade quem já foi feliz


Solo da introdução

 C            G7         C
Qual um potro levado pra longe
                       G7
De volta a um pasto antigo
     
Eu andei por aquela fazendo
                     C
Revendo lugares e amigos

               G7      C
Lá na roça dos meus 15 anos

Ah, meus olhos encheram de brilho
G7                  C
Ao fitar o orvalho caindo
                       G7
Com os raios do sol matutino
G7         / F   G7 /       C
Sobre as loiras bonecas de milho


(Refrão)

G7                           C 
Não faz mal que meus olhos marejem 
      G7                  C 
Ao falar desta viagem que fiz
    G7                    C
Se chorar, eu chorei de saudade
       C                   G7 
Então deixe que eu chore à vontade
       G7     /  F    G7 /       C
Pois só tem saudade quem já foi feliz


Solo da introdução

C         G7            C
Por lá eu cheguei bem cedinho
                      G7
Vi o sol acordar na colina

E o corpo moreno da noite
                           C
Se deitar sobre a verde campina

           G7       C
Toquei na viola caipira
                          G7
Que o pai me deixou de herança

Vi a mãe caminhando ao meu lado
       C                    G7
E brinquei com o carrinho quebrado
                           C
Que eu fiz quando ainda criança

(Refrão)

G7                           C 
Não faz mal que meus olhos marejem 
      G7                  C 
Ao falar desta viagem que fiz
    G7                    C
Se chorar, eu chorei de saudade
                            G7 
Então deixe que eu chore à vontade
       G7     /  F    G7 /       C
Pois só tem saudade quem já foi feliz


Solo Final

 

Colaboração: Aparicio Ribeiro / Evandro de Oliveira
mande seu vídeo tocando #aprendinocifrasdeviola

Grave um vídeo tocando "Reencontro", poste no Youtube e envie o link pra gente! Você aparecerá aqui mostrando seu talento.

Envie seu vídeo
o que achou da música?
comentários

Faltam caracteres

Obs: Seu comentario está sujeito à aprovação.

Faltam caracteres

Ajude o CifrasdeViola a permanecer no ar:
Mostrar Acordes