Quando a Saudade Dói
915 visualizações
Afinação: Cebolão em Mi
Afinação: Ritmo: Caterete
Corrigir

aperte Esc para fechar
Espaço para play/pause

Tom: E

(intro) E B7 A E B7 A B7

E |--2/5-5-5--3-3-3--2/5-5-5h7h5--|--2-2-2-2-3-5-0----|
B |--3/7-7-7--5-5-5--3/7-7-7------|--3-3-3-3-5-7-2----|
G#|-------------------------------|-------------------|
E |-------------------------------|-------------------|
B |-------------------------------|-------------------|

E |--7-7-7-9--10-9--7-5h7h5-------|--10-10-10-9---7-7-7-5---|
B |--8-8-8-10-12-10-8-7-----------|--12-12-12-10--8-8-8-7---|
G#|-------------------------------|-------------------------|
E |-------------------------------|-------------------------|
B |-------------------------------|-------------------------|

E |--3-5-7-5-7--5-3-2-2-----------|
B |--5-7-8-7-8--7-5-3-3-----------|
G#|-------------------------------|
E |-------------------------------|
B |-------------------------------|

E                B7      A               E
Quando a saudade dói eu passo a mão na viola
E                    B7      A               B7   
Seu ponteio é que consola o peito desse cantador
E                B7     A              E
Quando a saudade dói eu pego o retrato dele
E                   B7    A   B7          E   
E canto olhando pra ele lamentando a minha dor
G#m                    A                E
Quando a saudade dói eu canto feito passarinho
E                B7         A           E
Solitário nesse ninho tão sozinho...sigo a cantar
G#m                    A               E
Quando a saudade dói procuro evitar o pranto
E                  B7    A B7             E   B7
É por isso que eu canto, canto pra não chorar

(Refrão)
E                                     B7
Quando me bate a saudade a solidão devora
                A                             B7   
Aí minha viola chora, saudade é dor que me corrói
E                                    B7
Aí o jeito é cantar pra amenizar o tédio
                     A    B7               E
A viola é o meu remédio, quando a saudade dói


E                B7     A               E
Quando a saudade dói eu pego o retrato dele
E                   B7   A    B7          E   B7
E canto olhando pra ele lamentando a minha dor
E                                    B7
Quando me bate a saudade a solidão devora
                A                             B7
Aí minha viola chora, saudade é dor que me corrói

(Refrão)

mande seu vídeo tocando #aprendinocifrasdeviola

Grave um vídeo tocando "Quando a Saudade Dói", poste no Youtube e envie o link pra gente! Você aparecerá aqui mostrando seu talento.

Envie seu vídeo
o que achou da música?
comentários

Faltam caracteres

Obs: Seu comentario está sujeito à aprovação.

Faltam caracteres

Ajude o CifrasdeViola a permanecer no ar:
Mostrar Acordes