Peito Sadio Ponteada
5.063 visualizações
Afinação: Cebolão em Mi
Afinação: Ritmo: Cururu
Corrigir

aperte Esc para fechar
Espaço para play/pause

Tom: E

-4-5-7-7/10-10--9----9-7-7-5-5-4--
-5-7-9-9/12-12-10---10-9-9-7-7-5--
---------------------------------- [INTRODUÇÃO]
----------------------------------
----------------------------------

-4-4-4/7----7-7-7/-9--9/12-11-11--9--9--
-5-5-5/9----9-9-9/10-10/14-12-12-10-10--
---------------------------------------- [RIFF 1]
----------------------------------------
----------------------------------------

-4-4-4/7-7-7-5-5---4-4-4/5-5-5-4-4--
-5-5-5/9-9-9-7-7---5-5-5/7-7-7-5-5--
------------------------------------ [RIFF 2]
------------------------------------
------------------------------------

-4-4-4/7----7-7-7/-9--9/12-11-11--9--9--
-5-5-5/9----9-9-9/10-10/14-12-12-10-10--
---------------------------------------- [RIFF 3]
----------------------------------------
----------------------------------------


-4-4-4/7-7-7-5-5---4-4-4/5-5-5-4-4--
-5-5-5/9-9-9-7-7---5-5-5/7-7-7-5-5--
------------------------------------ [RIFF 4]
------------------------------------
------------------------------------

-4-4-4/7-7-7-7-7/-9--9--9--12-12-12--7-7-5-5-4--
-5-5-5/9-9-9-9-9/10-10-10--14-14-14--9-9-7-7-5--
------------------------------------------------ [RIFF 5]
------------------------------------------------
------------------------------------------------

-4-4-4/7----7-7-7/-9--9/12-11-11--9--9--
-5-5-5/9----9-9-9/10-10/14-12-12-10-10--
---------------------------------------- [FINAL]
----------------------------------------
----------------------------------------

(1) Foi às quatro horas da manhã, meu cachorro de guarda latiu
(2) Levantei para ver o que era, e vesti meu casaco de frio
(3) Então vi que chegou um mensageiro, amuntado num burro turdilho
(4) Apiou e me disse bom dia, o bolso da bardrana ele abriu
(5) Uma carta o rapaz me entregou E de novo amuntou e na estrada sumiu

Introdução

(1) Dei a carta pro meu irmão ler, ele leu me olhando sorriu
(2) É convite prá nóis ir na festa, vai haver um grande desafio
(3) O meu pai já correu no vizinho, foi chamar o vovô eo titio
(4) Nóis cheguemo a pular de contente, lá em casa ninguém mais dormiu
(5) Prá quebra aqueles campeonato nem com sindicato ninguém conseguiu

Introdução

(1) Violeiros que mandou convite mora lá no outro lado do rio
(2) Ele pensa que nóis não vai lá mais nóis semo caboclo de brio
(3) A peteca aqui do nosso lado por enquanto no chão não caiu
(4) Quando nóis cheguemo no catira os mais fraco na hora sumiu
(5) Só cantemo moda de campeão e os tar que era bão nem sequer reagiu

Introdução

(1) Perguntei para o dono da festa onde foi que o senhor conseguiu
(2) Esses tar violero famoso que as moda de nóis engoliu
(3) O festeiro ficou pensativo e mordeu no cigarro e cuspiu
(4) Voceis são dois caboclo batuta quem falou pode crê não mentiu
(5) Teve algum que cantá experimentou mas o peito falhou e a voz não saiu

Introdução

(1) As viola nóis faz de encomenda nosso peito é tratado e sadio
(2) Já cantemo tres noite seguida e as moda nois não repetiu
(3) Quem repete é relógio de igreja e o triste cantar do tiziu
(4) E agora com esta vitória ainda mais nossa fama subiu
(5) E vocêis não deve discutir e viemos aqui, foi vocêis quem pediu

Colaboração: Caê Moura Penteado
o que achou da música?
Ver Resultados
Total de 3 votos.
Muito Fácil: 1 votos. (33%)
33%
Fácil: 0 votos. (0%)
0%
Médio: 0 votos. (0%)
0%
Difícil: 0 votos. (0%)
0%
Muito Difícil: 2 votos. (67%)
67%
comentários

Faltam caracteres

Obs: Seu comentario está sujeito à aprovação.

Faltam caracteres

Ajude o CifrasdeViola a permanecer no ar:
Mostrar Acordes