Desespero do Mar
337 visualizações
Afinação: Cebolão em Ré
Afinação: Ritmo: Cururu
Corrigir

aperte Esc para fechar
Espaço para play/pause

Tom: A

D |-/09-09-09-09-09-09/12-12--10-09-7-5-4-4-5-7-09-------|-
A |-/10-10-10-10-10-10/14-14--12-10-9-7-5-5-7-9-10-------|-
F#|------------------------------------------------------|-
D |------------------------------------------------------|-
A |------------------------------------------------------|-

D |-5-5-5-5-5-4-7-7--12-12-12-12-12-7-7/09----12--12-9----------|-
A |-7-7-7-7-7-5-9-9--09-09-09-09-09-9-9/10--9-----------12-10---|-
F#|-------------------------------------------------------------|-
D |-------------------------------------------------------------|-
A |-------------------------------------------------------------|-

A
O poeta descobriu por o mar faz alvoroço
                                                                        E7
Porque ele não consegue banhar o meu Mato Grosso
o desespero do mar batendo na linda praia
                             D         E7           A  E7 A
É inveja que ele sente no lindo Rio Araguaia
D                                           A
Suas ondas Sobe e desse,Sobe e desse sem parar
                                 E7                  D  A
É Vontade que ele sente de ser o Rio Paraná

Solo

A

Se mar também banhasse o Mato Grosso do Sul
                                                            E7
Sua Grande imensidão tornava-se mais azul
Além do Paraná Conhecia o Araguaia
                                 D          E7         A   E7 A
As Lindas Mato-grossense enfeitava suas praias
D                                      A
No Mato Grosso do Norte Banharia a Capital
                                 E7                 D   A
Conhecia a Garça Branca Enfeite do Pantanal

Solo

A

Além dos dois Mato Grossos não conhece o meu Goiás
                                                                  E7
Suas ondas não alcançam a linda Minas Gerais
Belo Horizonte, Goiânia, Campo Grande, Cuiabá
                               D            E7        A  E7 A
Não Conhece o seu lamento nem o seu chua chua
D                                       A
É por isso que o oceano vive sempre agitado
                                         E7                   D          A  E7 A
Banha quase o mundo inteiro, mas não banha os quatro estados

Colaboração: Caê Moura Penteado
mande seu vídeo tocando #aprendinocifrasdeviola

Grave um vídeo tocando "Desespero do Mar", poste no Youtube e envie o link pra gente! Você aparecerá aqui mostrando seu talento.

Envie seu vídeo
o que achou da música?
comentários

Faltam caracteres

Obs: Seu comentario está sujeito à aprovação.

Faltam caracteres

Ajude o CifrasdeViola a permanecer no ar:
Mostrar Acordes