Boneca Cobiçada
2.216 visualizações
Afinação: Cebolão em Mi
Afinação: Ritmo: Valseado
Corrigir

aperte Esc para fechar
Espaço para play/pause

Tom: D

E |--5-3-2-0-------|-0--------|-----7-7-7-5-4--|-7-------5-----|------5-3-2-0--|
B |----------3-----|-----0----|-----8-8-8-7-6--|-7-------7-----|-------------3-|
G#|----------------|----------|----------------|---------------|---------------|
E |----------------|----------|----------------|---------------|---------------|
B |----------------|----------|----------------|---------------|---------------|

E |--0------------|-------7----------|--------------------0----|--2------------|
B |--------0------|---5-8--------2---|---3----------0-2-3------|---------------|
G#|---------------|-5----------------|---1--------1------------|---------------|
E |---------------|------------------|---2---------------------|---------------|
B |---------------|------------------|-------------------------|---------------|

D
Quando eu te conheci, do amor desiludida,
                                    A7
Fiz tudo e consegui, dar vida a tua vida
Dois meses de aventura, o nosso amor viveu
                                     D
Dois meses de ternura, beijei os lábios teus
Porém eu já sabia, que perto estava o fim
                                    A7
Pois tu não conseguias, viver só para mim
Eu poderei morrer, mas os meus versos não
                                     D
Minha voz hás de ouvir, ferindo o coração
           Em
Boneca cobiçada
A7              D
Das noites de sereno
                  Em
Teu corpo não tem dono
A7                D
Teus lábios tem veneno
                 Em
Se queres que eu sofra
A7                D   C# C B7
É grande o teu engano
                   Em
Pois olha nos meus olhos
A7                  D
Vê que não estou chorando

mande seu vídeo tocando #aprendinocifrasdeviola

Grave um vídeo tocando "Boneca Cobiçada", poste no Youtube e envie o link pra gente! Você aparecerá aqui mostrando seu talento.

Envie seu vídeo
o que achou da música?
comentários

Faltam caracteres

Obs: Seu comentario está sujeito à aprovação.

Faltam caracteres

Ajude o CifrasdeViola a permanecer no ar:
Mostrar Acordes