Boi Sete Ouro
866 visualizações
Afinação: Cebolão em Ré
Afinação: Ritmo: Moda
Corrigir

aperte Esc para fechar
Espaço para play/pause

Tom: D

D |---------------------------------------|
A |-9-7-7-----7-8-8-7---------------------|
F#|-8-7-7-7-8-7-9-9-7--8-7-3-5-7-8-8-7----|(1)
D |-------7-9----------9-7-4-5-7-9-9-7----|
A |---------------------------------------|

D |---------------------------------------|
A |---------------------------------------|
F#|-5-3-1-3-5-7-7-0-0-0-0-0-1-3-----------|(2)
D |-5-4-2-4-5-7-7-0-0-0-0-0-2-4-----------|
A |---------------------------------------|

D |---------------------------------------|
A |-----------------------------2-2-2-----|
F#|-----------------------2-2-2-2-2-2-----|(3)
D |-----2-2-2-0-0-0-0-0-0-2-2-2-2-2-2-----|
A |-0-0-4-4-4-2-2-2-2-2-2-------2-2-2-----|

D |---------------------------------------|
A |-----------------------------0---------|
F#|-7-7-7-0-0-0-7-0-0-3-1-1-0-0-0---------|(4)
D |-7-7-7-0-0-0-7-0-0-4-2-2-0-0-0---------|
A |-----------------------------0---------|

(1)Circo rodeio Ipiranga sua fama vai avante
(2)Faixa preta e o proprietário tem um boi lhe garante
(3)O seu nome é sete ouro seus pulos vale diamante
(4)São paulo , Goiás e Minas fez proezas importante

(1)Parece que o tal boi tem sabão em cima do couro
(2)Faixa preta fala grosso o bichão vale um tesouro
(3)Derrubou seiscentos peão não contando os calouros
(4)Deixo da vida de circo se quebrar o sete ouro

(1)Certo dia um feiticeiro fez um trabalho pesado
(2)Levou um peão no rodeio cem conto foi apostado
(3)Sete ouro não pulou deixou o povo admirado
(4)Faixa preta descobriu que o boi foi enfeitiçado

(1)Faixa preta na revanche contratou um macumbeiro
(2)Dobrou a aposta com o peão para duzentos mil cruzeiros
(3)E foi no primeiro pulo o peão beijou o picadeiro
(4)Neste dia que o feitiço virou contra o feiticeiro

(1)Faixa preta se orgulha da façanha que o boi fez
(2)Quem tentar montar no bicho nunca mais fica freguês
(3)Pros peão da minha terra lanço um desafio cortez
(4)Pra quebrar o sete ouro precisa nascer outra vez
Colaboração: Caê Moura Penteado
mande seu vídeo tocando #aprendinocifrasdeviola

Grave um vídeo tocando "Boi Sete Ouro", poste no Youtube e envie o link pra gente! Você aparecerá aqui mostrando seu talento.

Envie seu vídeo
o que achou da música?
Ver Resultados
Total de 1 votos.
Muito Fácil: 0 votos. (0%)
0%
Fácil: 0 votos. (0%)
0%
Médio: 0 votos. (0%)
0%
Difícil: 1 votos. (100%)
100%
Muito Difícil: 0 votos. (0%)
0%
comentários

Faltam caracteres

Obs: Seu comentario está sujeito à aprovação.

Faltam caracteres

Ajude o CifrasdeViola a permanecer no ar:
Mostrar Acordes