Boi Cigano
1.535 visualizações
Afinação: Cebolão em Ré
Afinação: Ritmo: Moda
Corrigir

aperte Esc para fechar
Espaço para play/pause

Tom: D#

D#|--0-0-0---0--7-7-7---7-------------------| 
A#|--0-0-0---0--7-7-7---7-------------------| 
G |--0-0-0-1-0--7-7-7-8-7-------------------| INTRO
D#|--0-0-0-2-0--7-7-7-9-7-------------------| 
A#|--0-0-0---0--7-7-7---7-------------------| 

D#|-----------------------------------0-----| 
A#|---------7-------------------------0-----| 
G |-7-7-7-8-7-8-7-7-7-5-5-3-3-1-3-0-0-0-----|(1)
D#|-7-7-7-9---9-7-7-7-5-5-4-4-2-4-0-0-0-----| 
A#|-----------------------------------0-----| 

D#|-----------------------------------7-----| 
A#|-----------------------------------7-----| 
G |-2-2-2-2-3-5-7-5-5-3-2-2-----------7-----|(2)
D#|-2-2-2-2-4-6-7-6-6-4-2-2-2-2-------7-----| 
A#|-------------------------4-4-2-0-0-7-----| 

D#|-----------------------------------------| 
A#|-----------------------------------2-----| 
G |-------------3-3-3-2-2-0-0-0-------2-----|(3)
D#|---2-2-2-2-2-4-4-4-2-2-0-0-0-2-----2-----| 
A#|-0-4-4-4-4-4-----------------4-2-2-2-----| 

D#|-----------------------------------7-----| 
A#|-----------------------------------7-----| 
G |-2-2-2-2-3-5-7-5-5-3-2-2-----------7-----|(4)
D#|-2-2-2-2-4-6-7-6-6-4-2-2-2-2-------7-----| 
A#|-------------------------4-4-2-0-0-7-----| 

D#|---------------------------------------5-|
A#|-----------5-7-5-5---------------------5-| 
G |-5-5-5-5-6-5-6-5-5-6-5-5-1-1---------5-5-|(5)
D#|-5-5-5-5-7---------7-5-5-2-2-2-2---4-5-5-| 
A#|-----------------------------3-3-5-----5-|

(1)Na cidade de Andradina com a boiada eu fui chegando
(2)Eu tava só com seis peões, oitocentos bois nos vinha tocando
(3)Com esse gadão de raça naquela praça eu fui travessando
(4)O ponteiro ia adiante com o berrante ia repicando

(1)No meio dessa boiada eu levava um boi por nome cigano
(2)O mestiço era valente por onde andava fazia dano
(3)Ganhei o boi de presente na negociada dos cuiabanos
(4)Já vinha recomendado pra ter cuidado com esse tirano

(1)O comprador desse gado na estação já estava esperando
(2)Pra fazer o pagamento depois do embarque dos cuiabanos
(3)Soltei os bois na mangueira e gritei pros peões Já podem ir embarcando
(4)Embarquemos os pantaneiros e no mangueiro ficou o cigano

(1)Chegou naquela cidade o grande circo sul africano
(2)Uns homens com o proprietário a respeito do boi tava conversando
(3)Insultou-me numa briga do leão feroz e o cuiabano
(4)Bati vinte mil na hora e jogos por fora estava sobrando

(1)O circo estava lotado e dado momento estava chegando
(2)Quando as feras se encontraram eu vi que o mundo ia se acabando
(3)Uns gritavam de emoção e outros de medo estava chorando
(4)Em vinte minutos o leão assentou no chão e ficou urrando

(5)O leão é o rei das feras Na selva ele é o soberano ai, ai
(5)Com sentimento seu dono Entregou o trono pro meu cigano ai, ai

Colaboração: Caê Moura Penteado
mande seu vídeo tocando #aprendinocifrasdeviola

Grave um vídeo tocando "Boi Cigano", poste no Youtube e envie o link pra gente! Você aparecerá aqui mostrando seu talento.

Envie seu vídeo
o que achou da música?
Ver Resultados
Total de 1 votos.
Muito Fácil: 0 votos. (0%)
0%
Fácil: 1 votos. (100%)
100%
Médio: 0 votos. (0%)
0%
Difícil: 0 votos. (0%)
0%
Muito Difícil: 0 votos. (0%)
0%
comentários

Faltam caracteres

Obs: Seu comentario está sujeito à aprovação.

Faltam caracteres

Ajude o CifrasdeViola a permanecer no ar:
Mostrar Acordes