Beleza Matogrossense
1.037 visualizações
Afinação: Cebolão em Mi
Afinação: Ritmo: Instrumental
Corrigir

aperte Esc para fechar
Espaço para play/pause

Tom: E

E |---9-12---9-12---9-12----7-10----7-10----7-10----7-10-----------------------------
B |----------------------------------------------------------------------------------
G#|-8------8------8-------8-------8-------8-------8---------------------------------
E |----------------------------------------------------------------------------------
B |----------------------------------------------------------------------------------

E |---9-12---9-12---9-12---9-12------12----10----12----10----------------------------
B |----------------------------------------------------------------------------------
G#|-8------8------8------8------8-12----10----12----10------------------------------
E |----------------------------------------------------------------------------------
B |----------------------------------------------------------------------------------

E |-12---9-12---9-12---9-12---7-10---7-10---7-10---7-10------------------------------
B |----------------------------------------------------------------------------------
G#|----8------8------8------8------8------8------8----------------------------------
E |----------------------------------------------------------------------------------
B |----------------------------------------------------------------------------------

E |---9-12---9-12---9-12---9-12------12----10-----9----7-----------------------------
B |----------------------------------------------------------------------------------
G#|-8------8------8------8------8-12----10----10----8-------------------------------
E |----------------------------------------------------------------------------------
B |----------------------------------------------------------------------------------

E |---5------9------5-------9-------7-------9-------7--------9-----------------------
B |----------------------------------------------------------------------------------
G#|-5-----8------5-------8-------6-------8-------6--------8-------------------------
E |-----0------0-------0-------0-------0-------0--------0----------------------------
B |----------------------------------------------------------------------------------

E |------5-------9-------5-------9--------12-------10------9-------7-----------------
B |----------------------------------------------------------------------------------
G#|---5-------8-------5-------8-------12-------10-------8-------6-------------------
E |-0-------0-------0-------0-------0--------0--------0-------0----------------------
B |----------------------------------------------------------------------------------

E |------5--------14-------5--------14------7--------12-------7-------12-------------
B |----------------------------------------------------------------------------------
G#|---5-------13--------5-------13-------6-------12--------6-------12---------------
E |-0-------0---------0-------0--------0-------0---------0-------0-------------------
B |----------------------------------------------------------------------------------

E |-----5--------14-------5--------14--------12--------14-------9------7-------------
B |----------------------------------------------------------------------------------
G#|---5------13--------5-------13--------12--------13--------8------6---------------
E |-0------0---------0-------0---------0---------0---------0------0-------0----------
B |----------------------------------------------------------------------------------

E |-----9-12----9----5----9----------------------------------------------------------
B |---5------------------------------------------------------------------------------
G#|-5---------8----5----8-----------------------------------------------------------
E |----------------------------------------------------------------------------------
B |----------------------------------------------------------------------------------

E |----5-----4-----2-----0-----7-----4----0-----0-0-9-----5-----4-----2----0---------
B |------------------------------------------------------------------------------3---
G#|-5-----3-----1-----0-----6-----3----0-----1---------5-----3-----1----0-----------
E |--------------------------------------------------------------------------2-------
B |----------------------------------------------------------------------------------

E |----9-----7---------9-------------------------------------------------------------
B |------------------5---------------------------------------------------------------
G#|-8-----6--------1----------------------------------------------------------------
E |----------------------------------------------------------------------------------
B |-------------2--------------------------------------------------------------------

E |-----0---5------------------------------------------------------------------------
B |-----0---5------------------------------------------------------------------------
G#|-1---0---5-----------------------------------------------------------------------
E |-----0---5------------------------------------------------------------------------
B |-2---0---5------------------------------------------------------------------------

Colaboração: Caê Moura Penteado
o que achou da música?
Ver Resultados
Total de 2 votos.
Muito Fácil: 0 votos. (0%)
0%
Fácil: 0 votos. (0%)
0%
Médio: 0 votos. (0%)
0%
Difícil: 2 votos. (100%)
100%
Muito Difícil: 0 votos. (0%)
0%
comentários

Faltam caracteres

Obs: Seu comentario está sujeito à aprovação.

Faltam caracteres

Ajude o CifrasdeViola a permanecer no ar:
Mostrar Acordes