Batistinha
Compositor: Teddy Vieira / Sulino
876 visualizações
Afinação: Cebolão em Mi
Afinação: Ritmo: Moda
Corrigir

aperte Esc para fechar
Espaço para play/pause

Tom: B

E |-------------------------------------
B |-------7----------------7-9-7-5-7----
G#|-7-7-7-7-8-7-8-8----7-8-7-8-7-5-7---- (1)
E |-7-7-7---9-7-9-9----7-9--------------
B |------------------------------------- 

|------------------------------------- 
|---7---------------------------------
G#|-7-7-8-7-3-1-0-0----2-2-2-3-2-0-2---- (2)
|-7---9-7-4-2-0-0----2-2-2-4-2-0-2----
|-------------------------------------

E |-------------------------------------
B |-2-2-2-4-2-0-2-2----------------4----
G#|-2-2-2-3-2-0-2-2--2-2-2-4-2-2---3---- (3)
E |------------------2-2-2-3-2-2-2-2----
B |------------------------------4-4----

E |-------------------------------------
B |----------------------------------4--
G#|---------------2-2----------------3-- (4)
E |-2-4-4-4-2-2-0-2-2----0-0-2-4-2---2--
B |-4-5-5-5-4-4-2--------2-2-4-5-4-0-0--

 

(1) Conheci o Batistinha no tempo que fui peão
(1) Viajamos muito tempo tirando boi do sertão
(3) Pra laçar um pantaneiro batista era dos bão,
(4) Também era respeitado no lombo de um pagão.

(1) Ele tinha por estima um bom cavalo arreado
(2) Um berrante rio-grandense com o seu nome gravado
(3) O seu cachorro gavião não saía do seu lado
(4) Três vidas bem diferentes num só destino traçado.

(1) A nossa última viagem até hoje estou lembrado
(2) Nós vinha de Aquidauana pra Barretos destinado
(3) Chegando no Porto Quinze, um boi ficou arribado
(4) Pra vir buscar o mestiço Batistinha foi mandado.

(1) A noite foi se passando e ele não aparecia
(2) Meu coração palpitava qualquer coisa pressentia
(3) No outro dia bem cedo logo a notícia corria
(4) Do uivar de um cachorro lá muito longe se ouvia.

(1) Juntamos a peonada pra procurar o peão
(2) Na beira do pantanal vi seu cachorro Gavião
(3) Ali terminava o rastro do seu cavalo alazão
(4) O berrante em cima d'água foi que trouxe a solução.

(1) O seu cavalo afundou naquele brejo atolante
(2) Levando seu cavaleiro pra outro mundo distante
(3) Não encontramos o corpo, mas a certeza é bastante
(4) Sei que era o Batistinha pela marca do berrante.

Colaboração: Caê Moura Penteado
o que achou da música?
comentários

Faltam caracteres

Obs: Seu comentario está sujeito à aprovação.

Faltam caracteres

Ajude o CifrasdeViola a permanecer no ar:
Mostrar Acordes