Saudade
8144 visualizações
Afinação: Cebolão em Mi
Afinação: Ritmo: Valseado
Corrigir

aperte Esc para fechar
Espaço para play/pause

Tom: G

Violão:
e|-----------------|-----------------|
B|-----------------|-----------------|
G|-----------------|-----------------|
D|----0-0-2-3-3-2/5|2-3-5-5-5-4-4-2-0|
A|2-3-2-2-3-5-5-3/7|3-5-7-7-7-5-5-3-2|
E|3-5--------------|-----------------|

e|/7-7-7-7-7-7-7/10-10-10-10--8--8--8-5-5-3-2-3-2--------|
B|/8-8-8-8-8-8-8/12-12-12-12-10-10-10-7-7-5-3-5-3-5-3-1-0|
G|------------------------------------------------5-4-2-0|
D|-------------------------------------------------------|
A|-------------------------------------------------------|
E|-------------------------------------------------------|

e|-----------------|
B|-----------------|
G|----------------0|
D|0--------------0-|
A|---3-2---0----2--|
E|-------------3---|

Viola:
 E|---------------------------------------------------
 B|-----3-3-5-6-6-5-8--/8-8-8-8-8-7-7-5-3~------------
G#|-3-4-3-3-4-6-6-4-8--/8-8-8-8-8-6-6-4-3~------------
 E|-3-5-----------------------------------------------
 B|---------------------------------------------------

 E|-/7-7-7-7-7-7-7/10-10-10-10--8--8--8-5-5-3-2-3-2------------------------
 B|-/8-8-8-8-8-8-8/12-12-12-12-10-10-10-7-7-5-3-5-3-5-3-------3------------
G#|-------------------------------------------------4-3-4-3-----4-3--------
 E|-----------------------------------------------------5-3-----------5-3--
 B|------------------------------------------------------------------------

   G      D      G             D       G
Saudade palavra rica, que martiriza e fica
                 D
Dentro de um coração, Da felicidade morta
                                          G
Que a saudade conforta, trazida de uma paixão

  G      D          G
Saudade tenho de alguém, Uma saudade que vem
    G7                C             D     G
De uma distância sem fim, Será que ela também
                        D       C      D       G
Na falta de um outro alguém, Sente saudade de mim

Introdução

   G       D        G 
Eu vivo sempre pensando, meus olhos vivem chorando
    G7          C               D           G
Não tenho felicidade, estou morrendo aos poucos
                        D     C      D       G
E o que me deixa mais louco, é a maldita saudade

mande seu vídeo tocando #aprendinocifrasdeviola

Grave um vídeo tocando "Saudade", poste no Youtube e envie o link pra gente! Você aparecerá aqui mostrando seu talento.

Envie seu vídeo
o que achou da música?
Ver Resultados
Total de 7 votos.
Muito Fácil: 2 votos. (29%)
29%
Fácil: 3 votos. (43%)
43%
Médio: 1 votos. (14%)
14%
Difícil: 0 votos. (0%)
0%
Muito Difícil: 1 votos. (14%)
14%
comentários

Faltam caracteres

Obs: Seu comentario está sujeito à aprovação.

Faltam caracteres

Ajude o CifrasdeViola a permanecer no ar:
Mostrar Acordes