O Mineiro e o Italiano
10.858 visualizações
Afinação: Cebolão em Mi
Afinação: Ritmo: Moda
Corrigir

aperte Esc para fechar
Espaço para play/pause

Tom: B

Introdução
|---------------------------------|----------------------------
|--0---0---0---0---0---0---0---0--|--0---0--0--0--0---0--0--0--
|---15--13--15--12--13--10--12--8-|---10--0--7--8--10--0--7--8-
|---------------------------------|----------------------------
|-0---0---0---0---0---0---0---0---|-0---0--0--0--0---0--0--0---

|-------------------------------------------
|--0--0--0--0--0--0--0--0--0--0--0--0-------
|---7--5--7---------------------------------
|------------7--9--5--7--4--5--2--4--0~-----
|-0--0--0--0--0--0--0--0--0--0--0--0--------

Versos..
|----------------------------------------
|------------7---------------------------
|--8-8-8-7-8-7-8-8-8-7-7-5-5-3-5-7-5----- (1)
|--9-9-9-7-9---9-9-9-7-7-5-5-4-5-7-5-----
|----------------------------------------

|----------------------------------------
|----------------------------------------
|--7-7-7-7-7-8-7-7-7-7-5-3-3-3-7-5-3----- (2)
|--7-7-7-7-7-9-7-7-7-7-5-4-4-4-7-5-4-----
|----------------------------------------

|----------------------------------------
|----------------------------------------
|--3-0------0-0-0-0-0-3-3-1-1-1-1/7--7-7- (3)
|--4-0------0-0-0-0-0-4-4-2-2-1-2/7--7-7-
|------0-0-------------------------------

|----------------------------------------
|----7-7-7-------------------------------
|--7-7-7-7-8-8-7-7-7-5-5-4-4-4-1-1-0----- (4)
|--7-------9-9-7-7-7-5-5-3-3-3-2-2-0-----
|----------------------------------------

|----------------------------------------
|----------------------------------------
|--0-0-0-0-1-3-5-5-5-5/7~-0-3-3-3-1-1-0-- (5)
|--0-0-0-0-2-4-5-5-5-5/7~-0-4-4-4-2-2-0--
|----------------------------------------

(1) O Mineiro e o Italiano vivia as barra dos Tribunais
(2) Numa de manda de terra que não deixava os dois em paz
(3) Só em pensar na derrota o pobre caboclo não dormia mais
(4) O Italiano roncava nem que eu gaste uns capitais
(5) Quero ver esse Mineiro voltar a pé pra Minas Gerais

(1) Voltar de a pé pro Mineiro seria feio pro seus parente
(2) Apelou pro adevogado fale pro juíz pra ter dó da gente
(3) Diga que nós semo pobre que meus filhinhos vivem doente
(4) Um parmo de terra a mais para o Italiano é indiferente
(5) Se o juiz me ajudar a ganhar lhe dou uma leitoa de presente

(1) Retrucou o advogado o senhor não sabe o que esta falando
(2) Não caia nessa besteira se não nós vamo entrá pro cano
(3) Este juiz é uma fera caboclo sério e de tutano
(4) Paulista da velha guarda família de quatrocentos anos
(5) Mandá a leitoa pra ele é dar vitória pro italiano

(1) Porém chegou o grande dia que o tribunal deu o veredito
(2) Mineiro ganhou a demanda o advogado achou esquisito
(3) Mineiro disse ao doutor eu fiz conforme lhe havia dito
(4) Respondeu o advogado que o juiz vendeu e eu não acredito
(5) Jogo meu diploma fora se nesse angu Não tiver mosquito

(1) De fato falou o mineiro nem mesmo eu to acreditando
(2) Ver meu filhinhos de a pé meu coração vivia sangrando
(3) Peguei uma leitoa gorda foi Deus do Céu, me deu este plano
(4) De uma cidade vizinha para o juiz eu fui despachando
(5) Só não mandei no meu nome mandei no nome do italiano

mande seu vídeo tocando #aprendinocifrasdeviola

Grave um vídeo tocando "O Mineiro e o Italiano", poste no Youtube e envie o link pra gente! Você aparecerá aqui mostrando seu talento.

Envie seu vídeo
o que achou da música?
Ver Resultados
Total de 11 votos.
Muito Fácil: 2 votos. (18%)
18%
Fácil: 2 votos. (18%)
18%
Médio: 3 votos. (27%)
27%
Difícil: 3 votos. (27%)
27%
Muito Difícil: 1 votos. (9%)
9%
comentários

Faltam caracteres

Obs: Seu comentario está sujeito à aprovação.

André
2 meses atrás
O dedilhado difícil
Itallo Júnior
3 meses atrás
Cara, de coração...Muuuuuito obrigado, simplesmente foda <3
elias rocha
6 meses atrás
bom e pouco.e otimo

Faltam caracteres

Ajude o CifrasdeViola a permanecer no ar:
Mostrar Acordes