Ingrata Maria
Compositor: Raul Torres
3919 visualizações
Afinação: Cebolão em Mi
Afinação: Ritmo: Moda
Corrigir

aperte Esc para fechar
Espaço para play/pause

Tom: B

|----------------------------------
|----------------------------------
|-2-2/7-7-7-7-7-7-5-5-5-3-3-3-2-2-2
|-2-2/7-7-7-7-7-7-6-6-6-4-4-4-2-2-2
|----------------------------------

|----------------------------------
|----------------------------------
|/5-5-5-5-5-5-5/7-7-5-3-2-2-0-0----
|/6-6-6-6-6-6-6/7-7-6-4-2-2-0-0-2-2
|-------------------------------4-4

|----------------------------------
|----------------------------------
|----------------------------------
|--------------0-2-2---4-4-2-2-0-0-
|0-0-0-0-0-0-0-2-4-4-0-5-5-4-4-2-2-

|---------------------------------
|---------------------------------
|---------------------------------
|--------------0-2-2-------0-2-4-4
|0-0-0-0-0-0-0-2-4-4-0-0-0-2-4-5-5 

|---------------------------------
|---------------------------------
|/3-3-3-3-3-3-2-------------------
|/4-4-4-4-4-4-2-2-2-2-2/4-0-0-----
|---------------4-4-4-4/5-2-2-0-0-

De noite estive sonhando contigo minha princesa
Acordando eu não vi nada o sonho não é certeza
Eu passeio o dia todo chorando só de tristeza
Esta minha triste vida eu confesso com franqueza
Ando vendo em toda parte teu semblante de beleza

É triste viver no mundo amando sem ser amado;
Um coração que padece vive triste amargurado.
E um coração que não ama vive alegre sossegado!
Quando você passar por mim com seu andar balanceado,
Eu prego os olhos no chão pra chorar mais disfarçado. 

Quisera que Deus me desse o prazer de conquistar
Desse seus olhinhos lindos a ventura de um olhar
E depois de um certo tempo suas mãozinhas segurar
E encostada no meu peito só pra você escutar
E sentir o tic-tac de um coração disparar. 

Eu quisera ser o pente pra ajeitar seu penteado
E uma fita cor de rosa no seu cabelo amarrado
Eu quisera ser a barra do seu vestido rendado
Eu quisera ser o salto do seu sapato dourado,
Pra voe pisar bem forte nesse coração magoado. 

A tristeza me acompanha, não tenho mais alegria
Eu procuro disfarçar esta minha melancolia
Eu quisera nascer cego, talvez assim não sofria
E melhor viver nas trevas do que ver a luz do dia
Do que ver o semblante de você Ingrata Maria!

Colaboração: Igor Basso
mande seu vídeo tocando #aprendinocifrasdeviola

Grave um vídeo tocando "Ingrata Maria", poste no Youtube e envie o link pra gente! Você aparecerá aqui mostrando seu talento.

Envie seu vídeo
o que achou da música?
Ver Resultados
Total de 4 votos.
Muito Fácil: 1 votos. (25%)
25%
Fácil: 2 votos. (50%)
50%
Médio: 1 votos. (25%)
25%
Difícil: 0 votos. (0%)
0%
Muito Difícil: 0 votos. (0%)
0%
comentários

Faltam caracteres

Obs: Seu comentario está sujeito à aprovação.

jose clovis leal
1 ano atrás
uma das modas de viola mais linda coiza q so poeta pode fazer essa dupla maravilhosa pena q o goiano nos deixou tao cedo

Faltam caracteres

Ajude o CifrasdeViola a permanecer no ar:
Mostrar Acordes