Exemplo de Humildade
4.991 visualizações
Afinação: Cebolão em Mi
Afinação:
Corrigir

aperte Esc para fechar
Espaço para play/pause

Tom: B

|-----------------------------------
|----777---7h9-9-9-7--------77~-----
|-77-777-8-7h8-8-8-7-8-88-7-77~--B-- (1)
|-77-----9-----------9-99-7---------
|-----------------------------------

|---------------------------------
|-----------------22-2h4-44~------
|-777-77-5-88-8-7-22-2h3-33~---B-- (2)
|-777-77-6-99-9-7-----------------
|---------------------------------

|---------------------------------
|---------------------------------
|-222-222-3-2-2-0-------22-2~--A-- (3)
|-222-222-4-2-2-0-2-----22-2~-----
|-----------------4-2-0-----------

|------------------------------
|------------------------------
|---------------------------A-- (4)
|-222-222---444-2--------------
|-444-444-2-555-4-2-0000~------

|-------------------------------------
|-------------------------------------
|-000-33-2-2h3-0~-000-22-0-0h2-----A-- (5)
|-000-44-2-2h4-0~-000-22-0-0h2-2~-----
|------------------------------4~-----

|----------------------------------
|----------------------------------
|-------------------------------A-- (6)
|-222-44-2-2/4---------2-----------
|-444-55-4-4/5-2~-00-2-4-2-00~-----

|----------------------------
|---2h4-4-2------2h4-4-2-----
|-2-2h3-3-2-33-2-2h3-3-2-3--- (7)
|-2---------44-2---------4---
|----------------------------

|-------------------------------
|-------------------------------
|-222-2-2h3-3-2-2-0---22~-2~---- (8)
|-222-2-2h4-4-2-2-0-2-22~-2~----
|-------------------4-----------

(1) Eu entrei num restaurante pra tomar uma cerveja
(2) quando um tipo que andeja encostou-se no balcão
(3) apesar de maltrapilho pareceu-me inteligente
(4) e pediu humildemente uma batida de limão
(5) mas eu tive uma surpresa no copeiro mal criado
(6) quis dinheiro adiantado para depois atender
(7) e o rapaz interiorano dando provas de humildade
(8) satisfez uma vontade absurda no meu ver..

(1) O patrão que estava perto deu razão ao empregado
(2) cabisbaixo e humilhado o mendigo se serviu
(3) demonstrando crueldade o dono do restaurante
(4) de maneira arrogante resmungando prosseguiu
(5) eu de fato me aborreço com freguês pés de chinelo
(6) e pegando um para belo exibiu depois guardou
(7) e o rapaz de olhar manso nada disse mas sentiu
(8) outra dose ele pediu mas primeiro ele pagou..

|-------------------------------------------------
|---2-4-4/5~-4-2-2h4~-4~----2-4-4/5~-4-2-2h4~-4~--
|-2-2-3-3/5~-3-2-2h3~-3~--2-2-3-3/5~-3-2-2h3~-3~-- (9)
|-2-----------------------2-----------------------
|-------------------------------------------------

|-----------------------|-----
|-4-9~-7-5-4-2----------|-----
|-3-8~-7-5-3-2-2h3~-2~--|----- (10)
|--------------2h4~-2~--|-----
|-----------------------|-----

 (9) Trinta e dois dias de viagem é uma longa caminhada
(10) Aparecida do Norte era o fim dessa jornada..

(1) Nessa altura no recinto havia bastante gente
(2) com pena do indigente que muito calmo falou
(3) se eu estou sujo rasgado é de tanto caminhar
(4) pois eu preciso pagar alguém que me ajudou
(5) eu vi minha mãe doente de um mal quase sem cura
(6) e com essa desventura pressenti a fria morte
(7) então a Deus fiz um pedido e o milagre foi tão lindo
(8) é por isso que vou indo à Aparecida do Norte

(1) Concluindo essas palavras deixou bem claro a lição
(2) para os dois deu um cartão com as suas iniciais
(3) sou um forte criador de gado raça holandesa
(4) além de outras riquezas que tenho em minas gerais
(5) pelo meu tipo de andante eu aqui fui maltratado
(6) mas eu fico obrigado pela falta de atenção
(7) os senhores desta casa não souberam me atender
(8) quando deveriam ter um pouco mais de educação.

Colaboração: Sérgio Rubin
mande seu vídeo tocando #aprendinocifrasdeviola

Grave um vídeo tocando "Exemplo de Humildade", poste no Youtube e envie o link pra gente! Você aparecerá aqui mostrando seu talento.

Envie seu vídeo
o que achou da música?
Ver Resultados
Total de 4 votos.
Muito Fácil: 0 votos. (0%)
0%
Fácil: 1 votos. (25%)
25%
Médio: 0 votos. (0%)
0%
Difícil: 1 votos. (25%)
25%
Muito Difícil: 2 votos. (50%)
50%
comentários

Faltam caracteres

Obs: Seu comentario está sujeito à aprovação.

Faltam caracteres

Ajude o CifrasdeViola a permanecer no ar:
Mostrar Acordes