Dona Felicidade
4.843 visualizações
Afinação: Cebolão em Mi
Afinação: Ritmo: Moda
Corrigir

aperte Esc para fechar
Espaço para play/pause

Tom: E

|----------------0----------------------
|--0-0-0---0-2-0-0----5-5-5-4-5-7-5-4---
|--0-0-0-1-0-1-0-0----5-5-5-3-5-7-5-3--- (1)
|--------2-------0----------------------
|----------------0----------------------

|--------------------------------------
|--4-4-4-5-7-9-10-9-|-7-9-7-5-3-3-0-0--
|--3-3-3-5-7-8-10-8-|-7-8-7-5-3-3-0-0-- (2)
|--------------------------------------
|--------------------------------------

|---------------------------------------0---
|--0-5-4-2-2-0-4-2-0---2-0---4-4-4-0----0---
|--0-5-3-1-1-0-3-1-0-3-1-0-1—3-3-3 0--1-0--- (3)
|--------------------4-----2----------2—0---
|---------------------------------------0---

(1) Quem passar naquela estrada, vê uma casinha amarela
(2) E uma varanda enfeitada e um canário na janela
(3) Tem um um jardim um pé de jasmim feliz assim eu vivo com ela

(1) Salto da cama cantando, bem antes que o sol esquente
(2) No fogão tá me esperando um cafezinho bem quente
(3) Tomo um golinho e vou pro caminho, e um cigarrinho eu pito contente

(1) Quando o sol vai se escondendo pra aliviar o meu cansaço
(2) Vem o caçula correndo se pendura nos meus braços
(3) Papai me fala cadê as balas, dentro do pala eu levo um maço

(1) Minha vida é uma beleza, dizem até que eu sou graúdo
(2) Eu tenho a maior riqueza, meu bando de barrigudos
(3) Minha morada não falta nada, com minha amada nós tem de tudo

(1) Agora eu vou pedir ai, pra dona felicidade
(2) Pra ela nunca mais sair ai, do meu rancho de saudade
(3) Se ela atender e eu merecer, feliz vou ser pra eternidade

Colaboração: Sérgio Rubin
mande seu vídeo tocando #aprendinocifrasdeviola

Grave um vídeo tocando "Dona Felicidade", poste no Youtube e envie o link pra gente! Você aparecerá aqui mostrando seu talento.

Envie seu vídeo
o que achou da música?
Ver Resultados
Total de 4 votos.
Muito Fácil: 1 votos. (25%)
25%
Fácil: 1 votos. (25%)
25%
Médio: 2 votos. (50%)
50%
Difícil: 0 votos. (0%)
0%
Muito Difícil: 0 votos. (0%)
0%
comentários

Faltam caracteres

Obs: Seu comentario está sujeito à aprovação.

Benedito Moralez
1 ano atrás
A musca é facil é eu que sou ruim eu comecei aprender a tocar depois dos 70 anos de idade e eu não estou acostumado c/ esse sistema de cfras

Faltam caracteres

Ajude o CifrasdeViola a permanecer no ar:
Mostrar Acordes